PrimaNota.ru - самый крупный в мире бесплатный архив песенных текстов, аккордов, табулатур и нот


311 - Daisy Cutter - таба, бас-таба, видео

Регистрация Запомнить меня
Войти через:  Facebook Google Twitter Vk Yandex Mail.ru

311 - Daisy Cutter - таба, бас-таба, видео

Печатать
Просмотров: 255
                          "Daisy Cutter" by 311


Video of me playing it:
http://www.youtube.com/watch?v=dg8sIj3MAz8

Tuning: Standard

Verse:
e|-------------------------------------------------|
B|-------------------------------------------------|
G|-------------------------------------------------|
D|-------------------------------------------------|
A|---8~--8x-----7~--7x---3-3-x-3-x-x-3-x-x-3-x-x-3-|
E|-5-5~--5x---3-3~--3x---1-1-x-1-x-x-1-x-x-1-x-x-1-|

Verse: (part 2)
e|--------------------------------------|
B|--------------------------------------|
G|--------------------------------------|
D|--------------------------------------|
A|-8-8-8-8-8/----------x-x-3---x-x-3----|
E|-6-6-6-6-6/----------x-x-1---x-x-1----|

Pre-Chorus:
e|---------------------|
B|---------------------|
G|-2-2-2-2-2-2-2-2-2-2-|
D|-x-x-x-x-x-x-x-x-x-x-|
A|-1-1-1-1-1-1-1-1-1-1-|
E|-0-0-0-0-0-0-0-0-0-0-|

Chorus:
e|---------------------------------|
B|---------------------------------|
G|---------------------------------|
D|-3-3-3-3-3-3/x-x1010-x-x1010-x-x-|
A|-3-3-3-3-3-3/x-x1010-x-x1010-x-x-|
E|-1-1-1-1-1-1/x-x-8-8-x-x-8-8-x-x-|

e|---------------------------------|
B|---------------------------------|
G|---------------------------------|
D|-3-3-3-3-3-3/x-x1010-x-x1010-x-x-|
A|-3-3-3-3-3-3/x-x1010-x-x1010-x-x-|
E|-1-1-1-1-1-1/x-x-8-8-x-x-8-8-x-x-|

e|---------------------------------|
B|---------------------------------|
G|---------------------------------|
D|-3-3-3-3-3-3/x-x1010-x-x1010-x-x-|
A|-3-3-3-3-3-3/x-x1010-x-x1010-x-x-|
E|-1-1-1-1-1-1/x-x-8-8-x-x-8-8-x-x-|

e|---------------------------------|
B|---------------------------------|
G|---------------------------------|
D|-3-3-3-3-3-3/x-x1010-x-x-----x-x-|
A|-3-3-3-3-3-3/x-x1010-x-x-3-3-x-x-|
E|-1-1-1-1-1-1/x-x-8-8-x-x-0-0-x-x-|

e|---------------------------------|
B|---------------------------------|
G|---------------------------------|
D|-3-3-3-3-3-3/x-x1010-x-x1010-x-x-|
A|-3-3-3-3-3-3/x-x1010-x-x1010-x-x-|
E|-1-1-1-1-1-1/x-x-8-8-x-x-8-8-x-x-|

e|---------------------------------|
B|---------------------------------|
G|---------------------------------|
D|-3-3-3-3-3-3/x-x1010-x-x1010-x-x-|
A|-3-3-3-3-3-3/x-x1010-x-x1010-x-x-|
E|-1-1-1-1-1-1/x-x-8-8-x-x-8-8-x-x-|

e|---------------------------------|
B|---------------------------------|
G|---------------------------------|
D|-3-3-3-3-3-3/x-x1010-x-x1010-x-x-|
A|-3-3-3-3-3-3/x-x1010-x-x1010-x-x-|
E|-1-1-1-1-1-1/x-x-8-8-x-x-8-8-x-x-|

e|---------------------------------|
B|---------------------------------|
G|---------------------------------|
D|-3-3-3-3-3-3/x-x1010-x-x1010-x-x-|
A|-3-3-3-3-3-3/x-x1010-x-x1010-x-x-|
E|-1-1-1-1-1-1/x-x-8-8-x-x-8-8-x-x-|

End of First Chorus:
e|---------------------------------------------------------|
B|--------------------------------------------10-11-13-11~-|
G|------------------------------------9-10-12--------------|
D|-3~~~~~~~-------------------8-10-12----------------------|
A|-3~~~~~~~-----------8-10-12------------------------------|
E|-1~~~~~~~------------------------------------------------|

Second Verse:
e|---5---5----3---3----1---1----1---1---|
B|---5---5----3---3----1---1----1---1---|
G|---5---5----4---4----2---2----2---2---|
D|--------------------------------------|
A|-7--------5--------3--------3---------|
E|-5--------3--------1--------1---------|

Second Verse: (part 2)
e|--------------------------------|
B|--------------------------------|
G|--------------------------------|
D|-8-8-8-8-8/-----x-x-3---x-x-3---|
A|--------------------------------|
E|--------------------------------|

Repeat Pre Chorus/Chorus

Bridge:
"It's four months now..."
e|---------------------------------------------------------|
B|---------------------------------------------------------|
G|-5-5-5-5-5-5-5-5-5-5-5-5-5-5-5-5-8-8-8-8-8-8-8-8-7-7-7-7-|
D|-7-7-7-7-7-7-7-6-6-6-6-6-6-6-6-6-8-8-8-8-8-8-8-8-x-x-x-x-|
A|-7-7-7-7-7-7-7-6-6-6-6-6-6-6-6-6-6-6-6-6-6-6-6-6-5-5-5-5-|
E|-5-5-5-5-5-5-5-4-4-4-4-4-4-4-4-4-6-6-6-6-6-6-6-6-6-6-6-6-|
  "To...my...life.."
e|-----------------------------------------------------------|
B|-----------------------------------------------------------|
G|-7----6----5-5-5-5-5-5-5-5-8-8-8-8-8-8-8-8-7-7-7-7-7-7-7-7-|
D|-x----x----x-x-x-x-x-x-x-x-8-8-8-8-8-8-8-8-x-x-x-x-x-x-x-x-|
A|-5x---4x---3-3-3-3-3-3-3-3-6-6-6-6-6-6-6-6-5-5-5-5-5-5-5-5-|
E|-6x---5x---4-4-4-4-4-4-4-4-6-6-6-6-6-6-6-6-6-6-6-6-6-6-6-6-|
"Quite-the----bomb--my"
e|------------------------|
B|------------------------|
G|------------------------|
D|-8~---7~----5~----------|
A|------------------7~----|
E|------------------------|
"Daisyyyyy" - Use octave pedal for this riff/solo
e|--------------------------------------------------------|
B|--------------------------------------------------------|
G|----9/10\9-----------9/10\9--------------9/10\9---------|
D|-----------10-7~------------10-7h8r7~-----------10-7~---|
A|--------------------------------------------------------|
E|--------------------------------------------------------|

e|-------------------------------------|
B|-------------------------------------|
G|-------------------------------------|
D|-7h8r7----7--------------------------|
A|-------10---10-8h10-8----8-----------|
E|----------------------10---10-8~~~~/-|

e|--------------------------^------------------------------|
B|-------------------10h13-13/------------------------^----|
G|-------------10h12----------------------------7h10-10/---|
D|-------10h12-----------------------------7h10------------|
A|-10h12------------------------------8h10-----------------|
E|-------------------------------8h10----------------------|

e|----------------------------------------------------------------|
B|----------------------------------------------------------------|
G|-/14-12---------------------------------------------------------|
D|--------15--12h15r12----12----------------------------------^---|
A|---------------------15----15--12h15r12-10-12-10--8h10r8----8~--|
E|---------------------------------------------------------10-----|
"Just clap your hands..."
e|-------------------------------------------------------------|
B|-------------------------------------------------------------|
G|-2-2-2-2-2x-----2-2-2-2-2x-----2-2-2-2-2x-----2-2-2-2-2x-----|
D|-3-3-3-3-3x-----3-3-3-3-3x-----3-3-3-3-3x-----3-3-3-3-3x-----|
A|-3-3-3-3-3x-----3-3-3-3-3x-----3-3-3-3-3x-----3-3-3-3-3x-----|
E|-1-1-1-1-1x-----1-1-1-1-1x-----1-1-1-1-1x-----1-1-1-1-1x-----|

Repeat Chorus
Repeat Octave riff from the bridge

Ending:
e|------------|
B|------------|
G|-2-2-2-2-2x-|
D|-3-3-3-3-3x-|
A|-3-3-3-3-3x-|
E|-1-1-1-1-1x-|
Добавлено: 02.06.2012
Другие материалы по этой песне:
  • Аккорды и текст

Страница создана 10.05.2012
http://primanota.ru/311/daisy-cutter-chords.htm
Привет, Гость.
Предлагаем пройти революционный курс по гитаре.
Подарок от PrimaNota.Ru, забирай!