PrimaNota.ru - самый крупный в мире бесплатный архив песенных текстов, аккордов, табулатур и нот


2pac - Thug Mansion - таба, видео

Регистрация Запомнить меня
Войти через:  Facebook Google Twitter Vk Yandex Mail.ru

2pac - Thug Mansion - таба, видео

Печатать
Просмотров: 196
This is the acoustic remix of Tupac Shakur's Thug Mansion-featuring Nas. 
Off of Interscope's 9/02 release; Better Dayz
ASIN: B000075BFK 

First of all this song is played on two guitars, one for Rhythm and one 
playing the licks, but it is possble to play both, just not exactly the 
same as the recording.This song is also mainly barre chords, so its best
to play on a guitar with a low action.

The guitars are dropped a half step down.
Eb-Bb-F#-C#-G#-Eb


Amaj-7: 5-7-7-6-5-5
Dbm: 4-4-6-6-5-4

Intro:
Eb|---------------------------------------7\5----------------------------7--
Bb|----5---5----------------5---5----5/7--7\5---3---5---5/6---6----3--5--6--
F#|----6---6--7p6-----------6---6---------------2---4---4/7---7----2--4--7--
C#|----7---7-----9-7--------6---6---------------0-----------0------0--------
G#|------------------9----4---4---------------------------------------------
Eb|--5---5------------------------------------------------------------------
  Amaj-7 Amaj-7          Dbm   Dbm

  ----------|
  ----------|
  --7p6--4--| 
  ----------|
  ----------|
  ----------|


Eb|------------------------------------5----------------------------------7--   
Bb|----5---5-------------5---5----5/7----7--5----3---5---5/6---6----3--5--6--
F#|----6---6--6h7p6------6---6-------------------2---4---4/7---7----2--4--7--
C#|----7---7-------7-----6---6-------------------0-----------0------0--------
G#|--------------------4---4-------------------------------------------------
Eb|--5---5-------------------------------------------------------------------
  Amaj-7 Amaj-7          Dbm   Dbm

  ----------|
  ----------|
  --7p6--4--|
  ----------|
  ----------|
  ----------|



Thats basically the combined intro.

The Rhythm is:
           
Eb|--------------------------------------------------------------------7---|
Bb|----5---5-------5------5-----5-------5----3---5---5/6----6----3--5--6---|
F#|----6---6-------6------6-----6-------6----2---4---4/7----7----2--4--7---|
C#|----7---7-------7------6-----6-------6----0---------0------0------------|
G#|--------------------4-----4------4--------------------------------------|
Eb|--5---5-----5-----------------------------------------------------------|


There are way to many licks to tab them all here, but if you search on Kazaa
or whatever you use to download mp3s, for (Thug Mansion-Instrumental) you 
can listen to it without the singing and figure the rest out.

Just to help the improv, the basic scale you can use to play around in is:

Eb|-----------------------------4-5-4--------------------------------------|
Bb|-------------------------5-7-------7-5----------------------------------|
F#|-------------------4-6-7---------------7-6-4----------------------------|
C#|-------------4-6-7---------------------------7-6-4----------------------|
G#|-------4-5-7---------------------------------------7-5-4----------------|
Eb|--5-7----------------------------------------------------7-5------------|




     
Добавлено: 20.10.2013
Вам также может быть интересно:
Другие материалы по этой песне:
  • Аккорды и текст

Страница создана 20.10.2013
http://primanota.ru/2pac/thug-mansion-chords.htm
Привет, Гость.
Предлагаем пройти революционный курс по гитаре.
Подарок от PrimaNota.Ru, забирай!