PrimaNota.ru - самый крупный в мире бесплатный архив песенных текстов, аккордов, табулатур и нот


2pac - Coachella Hologram - таба, видео

Регистрация Запомнить меня
Войти через:  Facebook Google Twitter Vk Yandex Mail.ru

2pac - Coachella Hologram - таба, видео

Печатать
Просмотров: 176
Tuning: Standard

More or less what's played before the beginning of "Hail Mary", in case you want to play along.


Lead: (This is played before the rhythm starts)
e|-----------------------------|
B|-----------------------------|
G|---8----------10--11--8------|
D|-------8--9------------------|  x1
A|-----------------------------|
E|-----------------------------|

Rhythm: 
e|--6----6-----9------9------7-----|
B|--7----7-----9------9------7-----|
G|--8----8-----10-----10-----8-----|
D|--8----8-----11-----11-----9-----|   x3
A|--6----6-----11-----11-----9-----|
E|-------------9------9------7-----|   

Rhythm: (Played the last time)
e|-11------9--------8----------|
B|-12------11-------8----------|
G|-13------11-------10---------|
D|-13------11-------10---------|  x1
A|-11------9--------8----------|
E|-----------------------------|

Lead: (Played after the last rhythm chord each time)
e|----------------------------|
B|---11--9--7-----------------|
G|-------------10--7-----7----|  x4
D|--------------------8-------|
A|----------------------------|
E|----------------------------|
Добавлено: 07.09.2013
Другие материалы по этой песне:
  • Аккорды и текст

Страница создана 07.09.2013
http://primanota.ru/2pac/coachella-hologram-chords.htm
Привет, Гость.
Предлагаем пройти революционный курс по гитаре.
Подарок от PrimaNota.Ru, забирай!