Войти:  Facebook Google Twitter Vk Yandex Mail.ru
PrimaNota.ru - самый крупный в мире бесплатный архив песенных текстов, аккордов, табулатур и нот


Yukiko Okada - 眠れぬ夜のAquarius - бас-таба, видео

Печатать
Просмотров: 56
Лучшая metal-группа Петербурга

眠れぬ夜のAquarius

  • аккорды и текст

[Intro]
G|---------|---------|-----------------------|---------|---------|---------------------|
D|---------|---------|-------------4h6--4----|---------|---------|---------------------|
A|---------|-4-------|-----------4--------4-\|-2-------|---------|-7-7--7--7-7---------|
E|-5-------|---------|-2---------------------|---------|-0-------|---------------------|

G|--------------------|------------------9\|--------------------|------------------------|
D|------------------7\|-2---2-2------------|------------------7\|-2---2-2----------------|
A|--------------------|--------------------|--------------------|-------------7-7--7-7--7|
E|-5---5-5------------|--------------------|-5---5-5------------|------------------------|

[Verse 1]
G|-----------|-----------|-----------|------------|
D|-----------|-----------|-----------|------------|
A|-----------|-----------|-----------|-------7----|
E|-5---5-5---|-5---5-5---|-5---5-5---|-5---5----5-|

G|-----------|-----------|-----------|-----------|
D|-----------|-----------|-----------|-----------|
A|-5---5-5---|-5---------|-----------|-7---7-7---|
E|-----------|-----3-3---|-5---5-5---|-----------|

G|-----------|-----------|------------|-----------|
D|-----------|-----------|------------|-----------|
A|-----------|-----------|----------6-|-4---4-4---|
E|-5---5-5---|-5---5-5---|-4---4-4----|-----------|

G|-----------|-----------|------------|-----------|------------|
D|-----------|-----------|------------|-----------|------------|
A|-7---7-7---|-----------|----------6-|-4---4-4---|-2----------|
E|-----------|-5---5-5---|-4---4-4----|-----------|-----0-0---0|

[Pre-Chorus]
G|-----------|-----------|-----------|------------|
D|-----------|-----------|-----------|------------|
A|-----------|-----------|-----------|-------7----|
E|-5---5-5---|-5---5-5---|-5---5-5---|-5---5----5-|

G|-----------|-----------|-----------|--------------|
D|-----------|-----------|-----------|--------------|
A|-5---5-5---|-5---------|-----------|--------------|
E|-----------|-----3-3---|-5---5-5---|-0---3-3-3-3-3|

[Chorus]
G|-------------|-----------|-----------|-------------|
D|-------------|-----------|-----------|-------------|
A|-3---3-3-----|-3---3-3---|-5---5-5---|-5---5-5----5|
E|----------3-5|-----------|-----------|----------5--|

G|-----------|-----------|-----------|--------------|
D|-----------|-----------|-----------|-----------5-5|
A|-7---7-7---|-----------|-----------|--------------|
E|-----------|-5---5-5---|-6---6-6---|-3---3-3-3----|

G|-----------|-----------|-----------|-------------|
D|-----------|-----------|-----------|-------------|
A|-3---3-3---|-3---3-3---|-5---5-5---|-5---5-5----5|
E|-----------|-----------|-----------|----------5--|

G|------------|-----------|-----------|-----------|
D|------------|-----------|-----------|-----------|
A|-7---7-7----|-----------|-5---5-5---|-7---7-7---|
E|-----------7|-5---5-5---|-----------|-----------|

G|-----------|-----------|-----------|-----------|
D|-----------|-----------|-----------|-----------|
A|-----------|-----------|-7---7-7---|-7---7-7---|
E|-5---5-5---|-5---5-5---|-----------|-----------|

[Interlude]
G|---------|---------|----------------------|---------|---------|-------------|
D|---------|---------|-------------4h6p4----|---------|---------|-------------|
A|---------|-4-------|-----------4-------4--|-2-------|---------|-7-7--7--7-7-|
E|-5-------|---------|-2--------------------|---------|-0-------|-------------|

G|-------------|---------------------|
D|-------------|---------------------|
A|-7-7--7--7-7-|-7-7--7--7-7---------|
E|-------------|---------------------|

[Verse 2]
G|-----------|-----------|-----------|------------|
D|-----------|-----------|-----------|------------|
A|-----------|-----------|-----------|-------7----|
E|-5---5-5---|-5---5-5---|-5---5-5---|-5---5----5-|

G|-----------|-----------|-----------|-----------|
D|-----------|-----------|-----------|-----------|
A|-5---5-5---|-5---------|-----------|-7---7-7---|
E|-----------|-----3-3---|-5---5-5---|-----------|

G|-----------|-----------|------------|-----------|
D|-----------|-----------|------------|-----------|
A|-----------|-----------|-----------6|-4---4-4---|
E|-5---5-5---|-5---5-5---|-4---4-4----|-----------|

G|-----------|-----------|------------|-----------|-------------|
D|-----------|-----------|------------|-----------|-------------|
A|-7---7-7---|-----------|-----------6|-4---4-4---|-2-----------|
E|-----------|-5---5-5---|-4---4-4----|-----------|-----0-0-0-0-|

[Pre-Chorus]
G|-----------|-----------|-----------|-------------|
D|-----------|-----------|-----------|---------7---|
A|-----------|-----------|-----------|-----------7\|
E|-5---5-5---|-5---5-5---|-5---5-5---|-5---5-5-----|

G|-----------|-----------|-----------|--------------|
D|-----------|-----------|-----------|--------------|
A|-5---5-5---|-5---------|-----------|--------------|
E|-----------|-----3-3---|-5---5-5---|-0---3-3-3-3-3|

[Chorus]
G|-------------|-----------|-----------|-------------|
D|-------------|-----------|-----------|-------------|
A|-3---3-3-----|-3---3-3---|-5---5-5---|-5---5-5----5|
E|---------3-5-|-----------|-----------|----------5--|

G|------------|-----------|-----------|--------------|
D|------------|-----------|-----------|-------5-5-5-5|
A|-7---7-7----|-----------|-----------|--------------|
E|-----------7|-5---5-5---|-6---6-6---|-3---3--------|

G|-----------|-----------|-----------|-------------|
D|-----------|-----------|-----------|-------------|
A|-3---3-3---|-3---3-3---|-5---5-5---|-5---5-5----5|
E|-----------|-----------|-----------|----------5--|

G|-----------|-----------|-----------|-----------|
D|-----------|-----------|-----------|-----------|
A|-7---7-7---|-----------|-5---5-5---|-7---7-7---|
E|-----------|-5---5-5---|-----------|-----------|

G|-----------|--------------|
D|-----------|--------------|
A|-----------|--------------|
E|-5---5-5---|-0---3-3-3-3-3|

G|-----------|-----------|-----------|-------------|
D|-----------|-----------|-----------|-------------|
A|-3---3-3---|-3---3-3---|-5---5-5---|-5---5-5----5|
E|-----------|-----------|-----------|----------5--|

G|------------|-----------|-----------|--------------|
D|------------|-----------|-----------|-------5-5-5-5|
A|-7---7-7----|-----------|-----------|--------------|
E|-----------0|-5---5-5---|-6---6-6---|-3---3--------|

G|-------------|-----------|-----------|-------------|
D|-------------|-----------|-----------|-------------|
A|-3---3-3-----|-3---3-3---|-5---5-5---|-5---5-5----5|
E|----------3-5|-----------|-----------|----------5--|

G|-----------|-----------|-----------|-----------|
D|-----------|-----------|-----------|-----------|
A|-7---7-7---|-----------|-5---5-5---|-7---7-7---|
E|-----------|-5---5-5---|-----------|-----------|

G|----------------|----------------|--------------|
D|----------------|----------------|--------------|
A|----------------|----------------|--------------|
E|-5--------------|----------------|-0---3-3-3-3-3|

[Outro]
G|-----------|------------|-----------|-------------|
D|-----------|------------|-----------|-------------|
A|-3---3-3---|-3---3-3---3|-5---5-5---|-5---5-5----5|
E|-----------|------------|-----------|----------5--|

G|------------|-----------|-----------|----------------|
D|------------|-----------|-----------|-----5-5-----5-5|
A|-7---7-7----|-----------|-----------|----------------|
E|-----------0|-5---5-5---|-6---6-6---|-3-3-----3-3----|
                                                       (fade out)
G|-------------|-----------|-----------|-------------|-----------|
D|-------------|-----------|-----------|-------------|-----------|
A|-3---3-3-----|-3---3-3---|-5---5-5---|-5---5-5----5|-7---7-7---|
E|---------3-5-|-----------|-----------|----------5--|-----------|



***************************

| \ slide down
| h hammer-on
| p pull-off

***************************
Добавлено: 23.04.2018
Другие композиции этого автора:
Другие материалы по этой песне:
  • Аккорды и текст

Страница создана 23.04.2018
https://primanota.ru/yukiko-okada/aquarius-chords.htm

Привет, гитарист!

Тебе подарок от сайта PrimaNota.ru

Забрать подарок
ВАМ ПОДАРКИ ОТ ПРОЕКТА
"ГИТАРНАЯ РЕВОЛЮЦИЯ"