Войти:  Facebook Google Twitter Vk Yandex Mail.ru
PrimaNota.ru - самый крупный в мире бесплатный архив песенных текстов, аккордов, табулатур и нот


Yukiko Okada - 銀河のバカンス - бас-таба, видео

Печатать
Просмотров: 51
Лучшая metal-группа Петербурга

銀河のバカンス

  • аккорды и текст

Song : https://www.youtube.com/watch?v=2N4v-Zz5yRc


Bass Start - 00:09


[Intro]
00:09
G|----------------| 
D|-9-\5-----------|
A|----------------|
E|----------------|
00:17
G|----------------|-------------5--|----------------|----------------|
D|----------------|----------------|----------------|----------------|
A|-5-3------------|----------------|-3--------------|----------------|
E|----------------|----------------|----------------|----------------|

G|----------------|-------------5--|----------------|----------------|----------------|
D|----------------|----------------|----------------|----------------|----------------|
A|-3---3----------|----------------|-3---3----------|-3--------------|----------------|
E|----------------|----------------|----------------|----------------|----------------|

[Verse 1]
G|----------------|----------------|----------------|----------------| 
D|----------------|----------------|----------------|----------------|
A|----------------|----------------|----------------|----------------|
E|----------------|----------------|----------------|----------------|

G|----------------|----------------|----------------|----------------|
D|----------------|----------------|----------------|--------------9\|
A|----------------|----------------|----------------|----------------|
E|----------------|----------------|----------------|----------------|

G|----------------|-------------5--|----------------|----------------|
D|----------------|----------------|----------------|----------------|
A|-3--------------|----------------|-3--------------|----------------|
E|----------------|----------------|----------------|----------------|

G|----------------|----------------|----------------|----------------|
D|-2--------------|----------------|----------------|--------------5-|
A|----------------|-5--------------|----------------|------------5---|
E|----------------|----------------|-3--------------|----------------|

[Pre-Chorus]
G|----------------|----------------|--------------|------------|
D|----------------|----------------|--------------|------------|
A|-5---5-5--------|----------------|-7---7-7------|------------|
E|----------------|-3---3-3--------|----------7-6-|-5---5-5---\|

G|-------------------------|-----------------------|
D|------------------------3|-----------------------|
A|--------------------0-3--|-----------------------|
E|-1--1-1---1--1--1-1------|-3---3-3---3--3--3-3---|

[Chorus]
G|-------------|--------------|-------------|--------------|
D|------------3|---------2----|------------3|---------2----|
A|----------3--|--------------|----------3--|--------------|
E|-1---1-1-----|-0---0-0---x-0|-1---1-1-----|-0---0-0---x-0|

G|----------------|----------------|----------------|-----------5--|
D|----------------|----------------|----------------|---------5----|
A|-5---5-5--------|----------------|-3---3-3--------|-3---3-3-----3|
E|----------------|-3---3-3--------|----------------|--------------|

G|-------------|--------------|-------------|--------------|
D|------------3|---------2----|------------3|---------2----|
A|----------3--|--------------|----------3--|--------------|
E|-1---1-1-----|-0---0-0---x-0|-1---1-1-----|-0---0-0---x-0|

G|----------------|----------------|-------------------------|
D|----------------|----------------|----------------7--------|
A|-5---5-5--------|----------------|--------------7---7------|
E|----------------|-3---3-3--------|-5---5-5---5--------5-5--|

[Instrumental]
G|-------------|---------5----|-------------|---------5----|
D|------------3|--------------|------------3|--------------|
A|----------3--|-3---3-3---3-3|----------3--|-3---3-3---3-3|
E|-1---1-1-----|--------------|-1---1-1-----|--------------|

G|-------------|---------5----|----------------|----------------|
D|------------3|--------------|----------------|----------------|
A|----------3--|-3---3-3---3-3|----------------|----------------|
E|-1---1-1-----|--------------|-3---3-3--------|-3---3-3--------|

G|-------------|----------------|----------------|
D|-------------|----------------|----------------|
A|-------------|----------------|----------------|
E|-1-1--1--1--1|-3--------------|----------------|

[Verse 2]
G|----------------|----------------|----------------|----------------|
D|----------------|----------------|----------------|----------------|
A|-3---3-3--------|-3---3-3--------|-3---3-3--------|-3---3-3--------|
E|----------------|----------------|----------------|----------------|

G|----------------|----------------|------------|-------------|
D|----------------|----------------|------------|------------5|
A|-7---7-7--------|-5---5-5--------|------------|----------5--|
E|----------------|----------------|-6---6-6---\|-3---3-3-----|

G|----------------|----------------|----------------|----------------|
D|----------------|----------------|----------------|----------------|
A|-3---3-3--------|-3---3-3--------|-3---3-3--------|-3---3-3--------|
E|----------------|----------------|----------------|----------------|

G|----------------|----------------|----------------|-------------|
D|----------------|----------------|----------------|------------5|
A|-7---7-7--------|-5---5-5--------|----------------|----------5--|
E|----------------|----------------|-3---3-3--------|-3---3-3-----|

[Pre-Chorus]
G|----------------|----------------|--------------|------------|
D|----------------|----------------|--------------|------------|
A|-5---5-5--------|----------------|-7---7-7------|------------|
E|----------------|-3---3-3--------|----------7-6-|-5---5-5---\|

G|-------------------------|-----------------------|
D|------------------------3|-----------------------|
A|--------------------0-3--|-----------------------|
E|-1--1-1---1--1--1-1------|-3---3-3---3--3--3-3---|

[Chorus]
G|-------------|--------------|-------------|--------------|
D|------------3|---------2----|------------3|---------2----|
A|----------3--|--------------|----------3--|--------------|
E|-1---1-1-----|-0---0-0---x-0|-1---1-1-----|-0---0-0---x-0|

G|----------------|----------------|----------------|-/7-5---------|
D|----------------|----------------|----------------|-------5------|
A|-5---5-5--------|----------------|-3---3-3--------|----------3---|
E|----------------|-3---3-3--------|----------------|-------------3|

G|-------------|--------------|-------------|--------------|
D|------------3|---------2----|------------3|---------2----|
A|----------3--|--------------|----------3--|--------------|
E|-1---1-1-----|-0---0-0---x-0|-1---1-1-----|-0---0-0---x-0|

G|----------------|----------------|-------------------------|
D|----------------|----------------|--------------------7----|
A|-5---5-5--------|----------------|-------------------------|
E|----------------|-3---3-3--------|-5---5-5---5--5-5-5---5--|

G|-------------|--------------|-------------|--------------|
D|------------3|---------2----|------------3|---------2----|
A|----------3--|--------------|----------3--|--------------|
E|-1---1-1-----|-0---0-0---x-0|-1---1-1-----|-0---0-0---x-0|

G|----------------|----------------|--------------|----/7-5-------|
D|----------------|----------------|--------------|----------5----|
A|-5---5-5--------|----------------|-3---3-3-----3|-3----------3--|
E|----------------|-3---3-3--------|---------3-5--|--------------3|

G|-------------|--------------|-------------|--------------|
D|------------3|---------2----|------------3|---------2----|
A|----------3--|--------------|----------3--|--------------|
E|-1---1-1-----|-0---0-0---x-0|-1---1-1-----|-0---0-0---x-0|

G|----------------|----------------|------------------------|
D|----------------|----------------|-----------7--7------7--|
A|-5---5-5--------|----------------|------------------------|
E|----------------|-3---3-3--------|-5---5-5---------5-x----|

[Outro]
G|-------------|--------------|-------------|--------------|
D|------------3|---------2----|------------3|---------2----|
A|----------3--|--------------|----------3--|--------------|
E|-1---1-1-----|-0---0-0---x-0|-1---1-1-----|-0---0-0---x-0|

G|----------------|----------------|
D|----------------|----------------|
A|-5---5-5--------|----------------|
E|----------------|-3---3-3--------|

G|----------------|-----------5|----------------|-----------5|
D|----------------|------------|----------------|------------|
A|-3--------------|-3---3-3----|-3--------------|-3---3-3----|
E|----------------|------------|----------------|------------|

G|----------------|----------------|----------------|----------------|
D|----------------|----------------|----------------|----------------|
A|----------------|----------------|----------------|----------------|
E|-3--------------|----------------|----------------|----------------|



**********************

| / slide up
| \ slide down
| x dead note

**********************
Добавлено: 23.04.2018
Другие материалы по этой песне:
  • Аккорды и текст

Страница создана 23.04.2018
https://primanota.ru/yukiko-okada/-chords.htm

Привет, гитарист!

Тебе подарок от сайта PrimaNota.ru

Забрать подарок
ВАМ ПОДАРКИ ОТ ПРОЕКТА
"ГИТАРНАЯ РЕВОЛЮЦИЯ"