Войти:  Facebook Google Twitter Vk Yandex Mail.ru
PrimaNota.ru - самый крупный в мире бесплатный архив песенных текстов, аккордов, табулатур и нот


Youth Of Today - No More - таба, видео

Печатать
Просмотров: 69
Лучшая metal-группа Петербурга

No More

  • аккорды и текст

E|-----------------------------|
B|-----------------------------|
C|-----------------------------| Palm mute and gradually release twice (listening for timing)
D|--9-9-9-9-9-9-9--------------|
A|--9-9-9-9-9-9-9--------------|
E|--7-7-7-7-7-7-7--------------|


Verse 
E|-----------------------------------------|
B|-----------------------------------------|
G|-----------------------------------------|
D|--9-9-9-9--10--9--7--9-9-9-9--10--9--7---| x2
A|--9-9-9-9--10--9--7--9-9-9-9--10--9--7---|
E|--7-7-7-7--8---7--5--7-7-7-7--8---7--5---|
    . . . .            . . . . 


Chorus
E|------------------------------------------------------------------|
B|------------------------------------------------------------------|
G|------------------------------------------------------------------|
D|--7-7-7---9-9--10-10--9------------7-7-7---9-9--10-10--9----------|
A|--5-5-5---7-7--8--8---9------------5-5-5---7-7--8--8---9----------|
E|----------------------7--------------------------------7----------|

E|------------------------------------------------------------------|
B|------------------------------------------------------------------|
G|------------------------------------------------------------------|
D|--7-7-7---9-9--10-10--9------------7-7-7--------------------------|
A|--5-5-5---7-7--8--8---9------------5-5-5--------------------------|
E|----------------------7-------------------------------------------|


Verse 
E|-----------------------------------------|
B|-----------------------------------------|
G|-----------------------------------------|
D|--9-9-9-9--10--9--7--9-9-9-9--10--9--7---| x2
A|--9-9-9-9--10--9--7--9-9-9-9--10--9--7---|
E|--7-7-7-7--8---7--5--7-7-7-7--8---7--5---|
    . . . .            . . . .

Chorus
E|------------------------------------------------------------------|
B|------------------------------------------------------------------|
G|------------------------------------------------------------------|
D|--7-7-7---9-9--10-10--9------------7-7-7---9-9--10-10--9----------|
A|--5-5-5---7-7--8--8---9------------5-5-5---7-7--8--8---9----------|
E|----------------------7--------------------------------7----------|

E|------------------------------------------------------------------|
B|------------------------------------------------------------------|
G|------------------------------------------------------------------|
D|--7-7-7---9-9--10-10--9------------7-7-7--------------------------|
A|--5-5-5---7-7--8--8---9------------5-5-5--------------------------|
E|----------------------7-------------------------------------------|

E|------------------------------------------------------------|
B|------------------------------------------------------------|
G|------------------------------------------------------------|
D|--9-9-9-9-9-9---7-7---10-10-9--9-9-9-9-9-9---7-7---10-10-9--|
A|--9-9-9-9-9-9---5-5---8--8--7--9-9-9-9-9-9---5-5---8--8--7--|
E|--7-7-7-7-7-7------------------7-7-7-7-7-7------------------|
    . . . . . .                  . . . . . .

E|---------------------------------------------------------------|
B|--12--------------12---------------12-------------12-----------|
G|------7--10--9--------7--10--9---------7--10--9-------7--10-9--|
D|---------------------------------------------------------------|
A|---------------------------------------------------------------|
E|---------------------------------------------------------------|

E|-------------------------||
B|-------------------------||
G|-------------------------||
D|--9----------------------||
A|--9----------------------||
E|--7----------------------||
Добавлено: 25.05.2018
Другие материалы по этой песне:
  • Аккорды и текст

Страница создана 25.05.2018
https://primanota.ru/youth-of-today/no-more-chords.htm

Привет, гитарист!

Тебе подарок от сайта PrimaNota.ru

Забрать подарок
ВАМ ПОДАРКИ ОТ ПРОЕКТА
"ГИТАРНАЯ РЕВОЛЮЦИЯ"