Войти:  Facebook Google Twitter Vk Yandex Mail.ru
PrimaNota.ru - самый крупный в мире бесплатный архив песенных текстов, аккордов, табулатур и нот


Youth Of Today - Free At Last - текст песни, табы

Печатать
Лучшая metal-группа Петербурга

Free At Last

  • аккорды, текст

[Intro]
E|--------------------------|
B|--------------------------|
G|--------------------------|
D|--7--5--3--9--7-----------|
A|--7--3--3--7--5-----------|
E|--5-----1-----------------|

   
[Verse]
E|--------------------------------------------------|
B|--------------------------------------------------|
G|--------------------------------------------------|
D|--7-7--9--9--7-7--9--9--7-7--9--9--5-5------------| x3
A|--7-7--9--7--7-7--9--7--7-7--9--7--3-3--5-5-------|
E|--5-5--7-----5-5--7-----5-5--7----------3-3-------|

   
[Chorus]
E|--------------------------------------------------------|
B|--------------------------------------------------------|
G|--------------------------------------------------------|
D|--7-7-7-7-7-7-7-7-7-7--10--7-7-7-7-7-7-7-7-7-7--3-3--5--|
A|--7-7-7-7-7-7-7-7-7-7--8---7-7-7-7-7-7-7-7-7-7--3-3--5--|
E|--5-5-5-5-5-5-5-5-5-5------5-5-5-5-5-5-5-5-5-5--1-1--3--|
    . . . . . . . . . .      . . . . . . . . . . 
E|--------------------------------------------------------|
B|--------------------------------------------------------|
G|--------------------------------------------------------|
D|--7-7-7-7-7-7-7-7-7-7--10--7-7-7-7-7-7-7-7-7-7--5-4-5---|
A|--7-7-7-7-7-7-7-7-7-7--8---7-7-7-7-7-7-7-7-7-7--3-2-5---|
E|--5-5-5-5-5-5-5-5-5-5------5-5-5-5-5-5-5-5-5-5------3---|
    . . . . . . . . . .      . . . . . . . . . . 
  

[Verse]
E|--------------------------------------------------|
B|--------------------------------------------------|
G|--------------------------------------------------|
D|--7-7--9--9--7-7--9--9--7-7--9--9--5-5------------| x3
A|--7-7--9--7--7-7--9--7--7-7--9--7--3-3--5-5-------|
E|--5-5--7-----5-5--7-----5-5--7----------3-3-------|


[Chorus]
E|--------------------------------------------------------|
B|--------------------------------------------------------|
G|--------------------------------------------------------|
D|--7-7-7-7-7-7-7-7-7-7--10--7-7-7-7-7-7-7-7-7-7--3-3--5--|
A|--7-7-7-7-7-7-7-7-7-7--8---7-7-7-7-7-7-7-7-7-7--3-3--5--|
E|--5-5-5-5-5-5-5-5-5-5------5-5-5-5-5-5-5-5-5-5--1-1--3--|
    . . . . . . . . . .      . . . . . . . . . .

E|--------------------------------------------------------|
B|--------------------------------------------------------|
G|--------------------------------------------------------|
D|--7-7-7-7-7-7-7-7-7-7--10--7-7-7-7-7-7-7-7-7-7--5-4-3---|
A|--7-7-7-7-7-7-7-7-7-7--8---7-7-7-7-7-7-7-7-7-7--3-2-3---|
E|--5-5-5-5-5-5-5-5-5-5------5-5-5-5-5-5-5-5-5-5------1---|
    . . . . . . . . . .      . . . . . . . . . . 

E|--------------------------------------------------------------|
B|--------------------------------------------------------------|
G|--------------------------------------------------------------|
D|--5-5-5-5-5-5--3-3--5---7-7-7-7--10-10-10-10---------9-9-5-7--|
A|--5-5-5-5-5-5--3-3--5---7-7-7-7--8--8--8--8---8-8-8--7-7-3-5--|
E|--3-3-3-3-3-3--1-1--3---5-5-5-5---------------6-6-6-----------|


[Verse]
E|--------------------------------------------------|
B|--------------------------------------------------|
G|--------------------------------------------------|
D|--7-7--9--9--7-7--9--9--7-7--9--9--5-5------------| x3
A|--7-7--9--7--7-7--9--7--7-7--9--7--3-3--5-5-------|
E|--5-5--7-----5-5--7-----5-5--7----------3-3-------|

 
[Chorus]
E|--------------------------------------------------------||
B|--------------------------------------------------------||
G|--------------------------------------------------------||
D|--7-7-7-7-7-7-7-7-7-7--5-5--4--5------------------------||  Gradually release palm mute
A|--7-7-7-7-7-7-7-7-7-7--3-3--2--5------------------------||
E|--5-5-5-5-5-5-5-5-5-5----------3------------------------||
    . . . . . .

***********************************
| .  Palm Mute
***********************************   
Другие материалы по этой песне:
  • Аккорды, текст

https://primanota.ru/youth-of-today/free-at-last-chords.htm

Привет, гитарист!

Тебе подарок от сайта PrimaNota.ru

Забрать подарок
ВАМ ПОДАРКИ ОТ ПРОЕКТА
"ГИТАРНАЯ РЕВОЛЮЦИЯ"