» 
 » 
Lion



Yoko Kanno - Lion - табы

Чайковский в рок-аранжировке! Очень необычно, послушай!
Lion - Macross Frontier 2nd Opening

tab by Kytetiger

Intro:
A    C    D7

Solo bass:
------------------------------7-5-------7-5-------|
--------------------------5-8-------5-8-----------|
------------------------5---------5---------------|
-------5-4--------5-4-----------------------------|
-----7----------7---------------------------------|
-5-8--------5-8-----------------------------------|

(best is to play 2nd verse with the 1st)

2:
A  B  D  E F    E  C  Bsus2  Bbsus2
A  B  D  E F    E  C  Csus2  F#  E

ref:
Em  C  G  D   Bm  C  A  D  B7
Em  C  G  D   Bm  C  A  Bm  Em

Solo bass:
------------------------------7-5-------7-5-------|
--------------------------5-8-------5-8-----------|
------------------------5---------5---------------|
-------5-4--------5-4-----------------------------|
-----7----------7---------------------------------|
-5-8--------5-8-----------------------------------|


3:
A  B  D  E F    E  C  Bsus2  Bbsus2
A  B  D  E F    E  C  Csus2  F#  E

ref:
Em  C  G  D   Bm  C  A  D  B7
Em  C  G  D   Bm  C  A  Bm  Em

A   Amaj7  (4x)

Accoustic:
Em  D  C  G F#m   Em  F#m  G  A  B

distorsion:
Em  C  G  D   Bm  C  A  D  B7
Em  C  G  D   Bm  C  A  Bm    Em

ref2:
Fm  C#  G#  D#   Cm  C#  A#  D#  C7  (2x)

Fm  C#  G#  D#   Cm  C#  A#  Cm

A#   A#maj7 (8x)   

Yoko Kanno - Lion - ноты

(включить)
Другие композиции этого автора:
Другие материалы по этой песне:
  • Аккорды, текст

https://primanota.ru/yoko-kanno/lion-chords.htm