Войти:  Facebook Google Twitter Vk Yandex Mail.ru
PrimaNota.ru - самый крупный в мире бесплатный архив песенных текстов, аккордов, табулатур и нот


Y - Some Song - бас-таба, видео

Печатать
Просмотров: 78
Лучшая metal-группа Петербурга

Some Song

  • аккорды и текст

band:idk

song:just some song

album:idk

tuning:Drop D 
G)
D)
A)
D)



type:Bass




the part that is 9~ 7~ 5~ is the intro, the next part is the pre-chorus
G)------------------------------------------------------------------------)
D)------------------------------------------------------------------------)
A)9~---7~---5~---9~---7~---5~-------------------------------------------5*)
D)------------------------------99-999-9-9-99-999--997755-555-55-555-55---)
x2
chorus
G)------------------------------------------------------------------------)
D)------------------------------------------------------------------------)
A)----------------------------------------------5~------------------------)
D)999999999999999999999995555555555555555555555-----9--9--9--9--9-9~------)
x2                                                 ^second time only^

intro/pre chorus 

chorus 

intro only


play this with the guitar solo
G)------------------------------------------------------------------------)
D)------------------------------------------------------------------------)
A)------------------------------------------------------------------------)
D)999999999999999999555555555555555599999999999995555555599999999955555555)


intro only


then play this:
G)----------------------------------------------------------------------)
D)----------------------------------------------------------------------)
A)------------------------------------------------------5~--------------)
D)9---9----9------7----7---77-------5----55--5555--5555-----------------)


then:
G)----------------------------------------------------------------------)
D)----------------------------------------------------------------------)
A)-----------------------------------------5~*--------------------------)
D)999-999-99-999-999-55-55-555-5555555555~------------------------------)



chorus x2


outro
G)----------------------------------------------------------------------)
D)----------------------------------------------------------------------)
A)----------------------------------------------------------------------)
D)9~-7~-5~--------------------------------------------------------------)


*-virbrate string
~-hold note
Добавлено: 25.02.2018
Другие материалы по этой песне:
  • Аккорды и текст

Страница создана 25.02.2018
https://primanota.ru/y/some-song-chords.htm

Привет, гитарист!

Тебе подарок от сайта PrimaNota.ru

Забрать подарок
ВАМ ПОДАРКИ ОТ ПРОЕКТА
"ГИТАРНАЯ РЕВОЛЮЦИЯ"