Войти:  Facebook Google Twitter Vk Yandex Mail.ru
PrimaNota.ru - самый крупный в мире бесплатный архив песенных текстов, аккордов, табулатур и нот


Witchtrap - Metal War - бас-таба, видео

Печатать
Просмотров: 83
Лучшая metal-группа Петербурга

Metal War

  • аккорды и текст

Tabbed by: 6METAL6BASSIST6
E-mail: petergriffinav@gmail.com

Tuning: 1/4th down from E

0:03

G|----------------------------------------------------------------|
D|----------------------------------------------------------------|
A|----------------------------------------------------------------|
E|0-------------------------------0-------------------------------|

G|--------------------------------|
D|--------------------------------|
A|--------------------------------|
E|0-------------------------------|

G|----------------------------------------------------------------|
D|----------------------------------------------------------------| x4
A|----------------------------------------------------------------|
E|0-0-0-0-0-0-0-0-3-------5-------0-0-0-0-0-0-0-0-6-------5-------|

G|------------------------------------------------|
D|------------------------------------------------|
A|------------------------------------------------|
E|6-------5-------0-------------------------------|

0:33

G|----------------------------------------------------------------|
D|----------------------------------------------------------------| x4
A|--------------------------4-3-----------------------------------|
E|5-0-0-0-0-6---6-5-0-0-0-0-----6-5-0-0-0-0-6---6-5-0-0-0-0-1-3---|

G|----------------------------------------------------------------|
D|----------------------------------------------------------------| x2
A|----------------------------------------------------------------|
E|0-0-0-0-0-0-0-0-1---0-3---0-6-5-0-0-0-0-0-0-0-0-1---0-3---0-6-5-|

G|----------------------------------------------------------------|
D|----------------------------------------------------------------| x3
A|----------------3-------5-----------------------6-------5-------|
E|5-5-5-5-5-5-5-5-----------------5-5-5-5-5-5-5-5-----------------|

G|--------------------------------------------------------------------------|
D|--------------------------------------------------------------------------|
A|----------------3-------5-----------------------6-5-3-5-3-2-3-2-----------|
E|5-5-5-5-5-5-5-5-----------------5-5-5-5-5-5-5-5-----------------5-3-------|

Repeat from 0:33





2:11

G|----------------------------------------------------------------|
D|----------------------------------------------------------------| x4
A|----------6---5-----------6---5-----------6---5-----------5---6-|
E|5-5-5-5-5-------5-5-5-5-5-------5-5-5-5-5-------5-5-5-5-5-------|

G|----------------------------------------------------------------|
D|----------------------------------------------------------------| x3
A|----------------3-------5-----------------------6-------5-------|
E|5-5-5-5-5-5-5-5-----------------5-5-5-5-5-5-5-5-----------------|

G|--------------------------------------------------------------------------|
D|--------------------------------------------------------------------------|
A|----------------3-------5-----------------------6-5-3-5-3-2-3-2-----------|
E|5-5-5-5-5-5-5-5-----------------5-5-5-5-5-5-5-5-----------------5-3-------|

2:51

G|----------------------------------------------------------------|
D|----------------------------------------------------------------| Repeat until the end.
A|----------6---5-----------6---5-----------6---5-----------5---6-|
E|5-5-5-5-5-------5-5-5-5-5-------5-5-5-5-5-------5-5-5-5-5-------|
Добавлено: 26.07.2014
Другие материалы по этой песне:
  • Аккорды и текст

Страница создана 26.07.2014
https://primanota.ru/witchtrap/metal-war-chords.htm

Привет, гитарист!

Тебе подарок от сайта PrimaNota.ru

Забрать подарок
ВАМ ПОДАРКИ ОТ ПРОЕКТА
"ГИТАРНАЯ РЕВОЛЮЦИЯ"