Войти:  Facebook Google Twitter Vk Yandex Mail.ru
PrimaNota.ru - самый крупный в мире бесплатный архив песенных текстов, аккордов, табулатур и нот


Wax - Rosana - аккорды, текст, табы, бас-таба

Печатать
Лучшая metal-группа Петербурга

Rosana

  • аккорды, текст
Тональность: 
0
Проще! Аппликатуры

Rosana
Wax
-------------------------------------------------------------------------
Rosana - Wax
-------------------------------------------------------------------------
Tabbed by: Chongo

Standard Tuning

Key: A major
Chords: A and E
                                                              
Artist: Wax
Song: Rosana

Bass Intro: (The intro has a 3/4 rhythm)
     A                               E
G|----------------------------------|----------------------------------------|
D|----------------------------------|----------------------------------------|
A|-----------7---------------4------|--------7-------------------------------|
E|---5---------------5--------------|7---------------7-------0------2------4-|

     A                               E       (abrupt pause into verse)
G|----------------------------------|----------------------------------------|
D|----------------------------------|----------------------------------------|
A|-----------7---------------4------|--------7-------------------------------|
E|---5---------------5--------------|7---------------------------------------|

Verse and Chorus: (note: listen to the rhythm of the bass)
     A                               E                              A
G||---------------------------------|---------------------------------------||
D|*-----------------------7---6---4-|--6-----6-----6----7--7--4--6----------*|
A|*-----4--7-----4--7---------------|7-----7-----7---------------------4--7-*|
E||--5--------5--------5------------|----7-----7-----7--------------5-------||

===============================================================================

Lyrics:

Yeah, aww
Yeah, aww
Ow Ow yeah ah ah ah Awww
Ow ahh ow ah ah ah ah!
Check it out
My chick is one out of a million she a grand prize
Met her on dash bus up in Van Nuys
That pretty face, accent, and them tan thighs
Make me fantasize all day
I hit it like:
Woah woah, eh!
She is untouchable!
Woah woah, eh!
I'm telling you man she don't quit!
I hit it like:
Woah woah, eh!
She is untouchable!
Woah woah, eh!
Now I think I can handle this shit
(What's my motherfucking name?)
Rosana freaky lil' mama, she be trying to fuck all day
Hit it from the morning to the evening
She be still fiending
Lil' mamacita don't play
(What's my motherfucking name?)
Rosana freaky lil' mama, she be trying to fuck all day
Hit it from the morning to the evening
She be still fiending
Lil' mamacita don't play
Eh yo, me and her have been together for like a couple months
Mami got that punani sweeter than peanut butter crunch
I hit it from the back like a sucker punch
Bust a nut, back to the front for some uppercuts
and in the morning she be hooking me up proper
butt naked in my kitchen while she cooking me Machaca
And before I go to work she gimme that boom shakalaka
I want to stay home and fuck her all day!
I hit it like:
Woah woah, eh!
She is untouchable!
Woah woah, eh!
I'm telling you man she don't quit!
I hit it like:
Woah woah, eh!
She is untouchable!
Woah woah, eh!
Now I think I can handle this shit
(What's my motherfucking name?)
Rosana freaky lil' mama, she be trying to fuck all day
Hit it from the morning to the evening
She be still fiending
Lil' mamacita don't play
(What's my motherfucking name?)
Rosana freaky lil' mama, she be trying to fuck all day
Hit it from the morning to the evening
She be still fiending
Lil' mamacita don't play
Yo, Lot of joy lot of pleasure lot of pain lot of misery
To turn me over she be draining me physically
And I mean that quite literally
Cause I only got so many mini-me's swimming in me
Man I give it all I got but still she want to get some more
Back to the bathroom
Back to the bedroom
Back to the hall to the kitchen floor
I don't know what I'm bitching for
Cause I like it that way, and all I wanna do all day
Is hit it like:
Woah woah, eh
She is untouchable
Woah woah, eh!
I'm telling you man she don't quit
wanna hit it like:
Woah woah, eh!
She's indestructible!
Woah woah, eh!
Now I think I can handle this shit
(What's my motherfucking name?)
Rosana freaky lil' mama, she be trying to fuck all day
Hit it from the morning to the evening
She be still fiending
Lil' mamacita don't play
(What's my motherfucking name?)
Rosana freaky lil' mama, she be trying to fuck all day
Hit it from the morning to the evening
She be still fiending
Lil' mamacita don't play
(What's my motherfucking name?)
Rosana freaky lil' mama, she be trying to fuck all day
Hit it from the morning to the evening
She be still fiending
Lil' mamacita don't play
(What's my motherfucking name?)
Rosana freaky lil' mama, she be trying to fuck all day
Hit it from the morning to the evening
She be still fiending
Lil' mamacita don't play   
https://primanota.ru/wax/rosana-chords.htm

Привет, гитарист!

Тебе подарок от сайта PrimaNota.ru

Забрать подарок
ВАМ ПОДАРКИ ОТ ПРОЕКТА
"ГИТАРНАЯ РЕВОЛЮЦИЯ"