PrimaNota.ru - самый крупный в мире бесплатный архив песенных текстов, аккордов, табулатур и нот


Walkmen - Four Provinces - таба, видео

Регистрация Запомнить меня
Войти через:  Facebook Google Twitter Vk Yandex Mail.ru

Walkmen - Four Provinces - таба, видео

Печатать
Просмотров: 61
Лучшая metal-группа Петербурга
[Intro]
e|---------------------------------------------------------------------------|
B|---7---7-7-7-7---9--9--9---9-9-9--9-9-9------------------------------------|
G|---8---8-8-8-8---8--8--8---8-8-8--8-8-8------------------------------------|
D|---9---9-9-9-9---9--9--9---9-9-9--9-9-9------------------------------------|
A|---9---9-9-9-9---x--x--x---x-x-x--x-x-x------------------------------------|
E|---------------------------------------------------------------------------|

e|---11-----11-11----7----7--7-7----7----7--|---11-----11-11----7---7--7-7----7----7--|
B|---12-----12-12----9----9--9-9----7----7--|---12-----12-12----9---9--9-9----7----7--|
G|---13-----13-13----9----9--9-9----8----8--|---13-----13-13----9---9--9-9----8----8--|
D|---13-----13-13----9----9--9-9----9----9--|---13-----13-13----9---9--9-9----9----9--|
A|---11-----11-11----7----7--7-7----9----9--|---11-----11-11----7---7--7-7----9----9--|
E|----------------------------------7----7--|---------------------------------7----7--|

e|---11-----11-11----7----7--7-7----7----7--|---7---7---7-7-7--7---7---7---7---7---7--|
B|---12-----12-12----9----9--9-9----7----7--|---9---9---9-9-9--7---7---7---7---9---9--|
G|---13-----13-13----9----9--9-9----8----8--|---9---9---9-9-9--8---8---8---8---9---9--|
D|---13-----13-13----9----9--9-9----9----9--|---9---9---9-9-9--9---9---9---9---9---9--|
A|---11-----11-11----7----7--7-7----9----9--|---7---7---7-7-7--9---9---9---9---7---7--|
E|----------------------------------7----7--|------------------7---7---7---7----------|

[Verse]
e|---11-----11-11----7----7--7-7----7----7--|---11-----11-11----7---7--7-7----7----7--|
B|---12-----12-12----9----9--9-9----7----7--|---12-----12-12----9---9--9-9----7----7--|
G|---13-----13-13----9----9--9-9----8----8--|---13-----13-13----9---9--9-9----8----8--|
D|---13-----13-13----9----9--9-9----9----9--|---13-----13-13----9---9--9-9----9----9--|
A|---11-----11-11----7----7--7-7----9----9--|---11-----11-11----7---7--7-7----9----9--|
E|----------------------------------7----7--|---------------------------------7----7--| 

e|---11-----11-11----7----7--7-7----7----7--|---7---7---7-7-7--7---7---7---7---7---7--|
B|---12-----12-12----9----9--9-9----7----7--|---9---9---9-9-9--7---7---7---7---9---9--|
G|---13-----13-13----9----9--9-9----8----8--|---9---9---9-9-9--8---8---8---8---9---9--|
D|---13-----13-13----9----9--9-9----9----9--|---9---9---9-9-9--9---9---9---9---9---9--|
A|---11-----11-11----7----7--7-7----9----9--|---7---7---7-7-7--9---9---9---9---7---7--|
E|----------------------------------7----7--|------------------7---7---7---7----------|

[Chorus] (x2)
e|---12-----12-12----7----7--7-7----7----7--|---11-----11-11----7---7--7-7----7----7--|
B|---14-----14-14----9----9--9-9----7----7--|---12-----12-12----9---9--9-9----7----7--|
G|---14-----14-14----9----9--9-9----8----8--|---13-----13-13----9---9--9-9----8----8--|
D|---14-----14-14----9----9--9-9----9----9--|---13-----13-13----9---9--9-9----9----9--|
A|---12-----12-12----7----7--7-7----9----9--|---11-----11-11----7---7--7-7----9----9--|  
E|----------------------------------7----7--|---------------------------------7----7--|   
                                                                                        
e|---11-----11-11----7----7--7-7----7----7--|---7---7---7-7-7--7---7---7---7---7---7--|
B|---12-----12-12----9----9--9-9----7----7--|---9---9---9-9-9--7---7---7---7---9---9--|
G|---13-----13-13----9----9--9-9----8----8--|---9---9---9-9-9--8---8---8---8---9---9--|
D|---13-----13-13----9----9--9-9----9----9--|---9---9---9-9-9--9---9---9---9---9---9--|
A|---11-----11-11----7----7--7-7----9----9--|---7---7---7-7-7--9---9---9---9---7---7--|
E|----------------------------------7----7--|------------------7---7---7---7----------|

[Bridge] (x2)
e|-------------------------------------|----------------------------------------|
B|-14--14--14--14--14--14--12--12------|---14--14--14--14--14--14--12--12-------|
G|-14--14--14--14--14--14--14--14h16---|---14--14--14--14--14--14--14--14-------|
D|-14--14--14--14--12--12--12--12------|---14--14--14--14--12--12--12--12-------|
A|-12--12--12--12--12--12--12--12------|---12--12--12--12--12--12--12--12-------|
E|-------------------------------------|----------------------------------------|
                                                                                   
e|---------------------------------------------------------------------------|
B|--12-----10-----10-----9---------------------------------------------------|
G|--11-----9------9------9---------------------------------------------------|
D|--11-----11-----9------9---------------------------------------------------|
A|--x------x------x------7---------------------------------------------------|
E|---------------------------------------------------------------------------|

[Verse 2]
e|---11-----11-11----7----7--7-7----7----7--|---11-----11-11----7---7--7-7----7----7--|
B|---12-----12-12----9----9--9-9----7----7--|---12-----12-12----9---9--9-9----7----7--|
G|---13-----13-13----9----9--9-9----8----8--|---13-----13-13----9---9--9-9----8----8--|
D|---13-----13-13----9----9--9-9----9----9--|---13-----13-13----9---9--9-9----9----9--|
A|---11-----11-11----7----7--7-7----9----9--|---11-----11-11----7---7--7-7----9----9--|
E|----------------------------------7----7--|---------------------------------7----7--| 

e|---11-----11-11----7----7--7-7----7----7--|---7---7---7-7-7--7---7---7---7---7---7--|
B|---12-----12-12----9----9--9-9----7----7--|---9---9---9-9-9--7---7---7---7---9---9--|
G|---13-----13-13----9----9--9-9----8----8--|---9---9---9-9-9--8---8---8---8---9---9--|
D|---13-----13-13----9----9--9-9----9----9--|---9---9---9-9-9--9---9---9---9---9---9--|
A|---11-----11-11----7----7--7-7----9----9--|---7---7---7-7-7--9---9---9---9---7---7--|
E|----------------------------------7----7--|------------------7---7---7---7----------|

[Chorus 2] (x2)
e|---12-----12-12----7----7--7-7----7----7--|---11-----11-11----7---7--7-7----7----7--|
B|---14-----14-14----9----9--9-9----7----7--|---12-----12-12----9---9--9-9----7----7--|
G|---14-----14-14----9----9--9-9----8----8--|---13-----13-13----9---9--9-9----8----8--|
D|---14-----14-14----9----9--9-9----9----9--|---13-----13-13----9---9--9-9----9----9--|
A|---12-----12-12----7----7--7-7----9----9--|---11-----11-11----7---7--7-7----9----9--|  
E|----------------------------------7----7--|---------------------------------7----7--|   
                                                                                        
e|---11-----11-11----7----7--7-7----7----7--|---7---7---7-7-7--7---7---7---7---7---7--|
B|---12-----12-12----9----9--9-9----7----7--|---9---9---9-9-9--7---7---7---7---9---9--|
G|---13-----13-13----9----9--9-9----8----8--|---9---9---9-9-9--8---8---8---8---9---9--|
D|---13-----13-13----9----9--9-9----9----9--|---9---9---9-9-9--9---9---9---9---9---9--|
A|---11-----11-11----7----7--7-7----9----9--|---7---7---7-7-7--9---9---9---9---7---7--|
E|----------------------------------7----7--|------------------7---7---7---7----------|

[Bridge 2] (x3)
e|-------------------------------------|----------------------------------------|
B|-14--14--14--14--14--14--12--12------|---14--14--14--14--14--14--12--12-------|
G|-14--14--14--14--14--14--14--14h16---|---14--14--14--14--14--14--14--14-------|
D|-14--14--14--14--12--12--12--12------|---14--14--14--14--12--12--12--12-------|
A|-12--12--12--12--12--12--12--12------|---12--12--12--12--12--12--12--12-------|
E|-------------------------------------|----------------------------------------|
                                                                                 
e|---------------------------------------------------------------------------|
B|--12-----10-----10-----9---------------------------------------------------|
G|--11-----9------9------9---------------------------------------------------|
D|--11-----11-----9------9---------------------------------------------------|
A|--x------x------x------7---------------------------------------------------|
E|---------------------------------------------------------------------------|

[Outro]
e|-----------------------------|----------------------------------------------|
B|--7--7--7--7---7--7--5--5----|--7--7--7--7---7--7--5--5---------------------|
G|--7--7--7--7---7--7--7--7h9--|--7--7--7--7---7--7--7--7---------------------|
D|--7--7--7--7---5--5--5--5----|--7--7--7--7---5--5--5--5---------------------|
A|--5--5--5--5---5--5--5--5----|--5--5--5--5---5--5--5--5---------------------|
E|-----------------------------|----------------------------------------------|
                                                                                  
e|---------------------------------------------------------------------------|
B|----5-------3-------3--------2---------------------------------------------|
G|----4-------2-------2--------2---------------------------------------------|
D|----4-------4-------2--------2---------------------------------------------|
A|----x-------x-------0--------0---------------------------------------------|
E|---------------------------------------------------------------------------|

e|-----------------------------|----------------------------------------------|
B|--7--7--7--7---7--7--5--5----|--7--7--7--7---7--7--5--5---------------------|
G|--7--7--7--7---7--7--7--7h9--|--7--7--7--7---7--7--7--7---------------------|
D|--7--7--7--7---5--5--5--5----|--7--7--7--7---5--5--5--5---------------------|
A|--5--5--5--5---5--5--5--5----|--5--5--5--5---5--5--5--5---------------------|
E|-----------------------------|----------------------------------------------|
                                                                                  
e|-----------------------------------|----------------------------------------|
B|----5-------3-------3--------2-----|----------7~~~--------------------------|
G|----4-------2-------2--------2-----|----------7~~~--------------------------|
D|----4-------4-------2--------2-----|----------7~~~--------------------------|
A|----x-------x-------0--------0-----|----------5~~~--------------------------|
E|-----------------------------------|----------------------------------------|


************************************

| x  Dead note
| h  Hammer-on
| ~  Vibrato

************************************
Добавлено: 23.05.2018
Вам также может быть интересно:
Другие материалы по этой песне:
  • Аккорды и текст

Страница создана 23.05.2018
https://primanota.ru/walkmen/four-provinces-chords.htm
Привет, Гость.
Предлагаем пройти революционный курс по гитаре.
Подарок от PrimaNota.Ru, забирай!