Войти:  Facebook Google Twitter Vk Yandex Mail.ru
PrimaNota.ru - самый крупный в мире бесплатный архив песенных текстов, аккордов, табулатур и нот


Vulfpeck - Daddy He Got A Tesla - бас-таба, видео

Печатать
Просмотров: 95
Лучшая metal-группа Петербурга

Daddy He Got A Tesla

  • аккорды и текст

*Note - If you're playing along with the recording 
you may notice the tuning sounds a bit off. 
The recording is actually sharp by nearly a quarter tone, 
so tune accordingly.

[Intro]

G|----------|
D|-----3----|
A|-3-5--5---|
E|----------|

G|-------------------------------|----------------------------------|
D|-5/7-----------1-x-3---0h1-----|------------------1-1--3-x-0h1----|
A|---------------------------3---|x-x--------3-x-x---------------3--|
E|-----1--x-x--------------------|-----1-x-x------------------------|

G|-------------------------------|----------------------------------|
D|-----------------1-x-3---0h1---|--------------0-1--3--------------|
A|---------3-x-----------------3-|x-x--------3---------x-x------3-5-|
E|-1--x-x------------------------|----1-x-x----------------4/5------|

G|-------------------------------|----------------------------------|
D|--3\0-----1--x-3-x----1---x----|------------------1-1-1-3-x-0h1---|
A|-------------------------------|-x-x--------3-x-x---------------3-|
E|------1------------------------|------1-x-x-----------------------|

G|-------------------------------|----------------------------------|
D|-------------1-1-x-3---0h1-----|-------------------1-1-x-3--------|
A|--------3-3----------------3---|-x-x--------3-x-x-------------3-2-|
E|-1--x-x------------------------|------1-x-x-----------------1-----|


SAXOPHONE!

G|-------------------------------|----------------------------------|
D|-------------------------------|----------------------------------|
A|-1--1----1------------1--------|(1) ----1----------1--------------|  (x4)
E|--------------1--3-------------|------------1---3-----3---1-------|

G|-------------------------------|----------------------------------|
D|--------------6----6-----------|--------------8----8--------------|
A|-----------6----6------6-------|-----------8----8-----------------|
E|--/4---4------------------4-5--|--6---6---------------------------|


dat Mozart reference...

G|-------------------------------|----------------------------------|
D|-------------------------------|---------------2-----5------------|
A|--3-------------3--------------|---3-------3----------------------|
E|-----------3--------------3----|-------3--------------------------|


[Main Groove]

G|-------------------------------|----------------------------------|
D|---------------1-x-3---0h1-----|------------------1-1--3-x-0h1----|
A|--------3-x-x--------------3---|x-x--------3-x-x---------------3--|  (x3)
E|-1--x-x------------------------|-----1-x-x------------------------|

G|-------------------------------|----------------------------------|
D|---------------1-x-3---0h1-----|---0----------------3---5/6--5--3-|
A|--------3-x----------------3---|-x---x-0-x-x-/3--5----5-----------|  
E|-1--x-x------------------------|----------------------------------|

G|-------------------------------|----------------------------------|
D|---------------1-x-3---0h1-----|------------------1-1--3-x-0h1----|
A|--------3-x----------------3---|x-x--------3-x-x---------------3--|  
E|-1--x-x------------------------|-----1-x-x------------------------|

G|-------------------------------|----------------------------------|
D|---------------1-x-3---0h1-----|--3-------------------------------|
A|--------3-x----------------3---|----0-0-1-0-2-0-3-0-5-0-6-0-7-0---|  
E|-1--x-x------------------------|----------------------------------|

G|-------------------------------|----------------------------------|
D|-------------1-x-x-3---0h1-----|------------------1-1--3-x--0h1---|
A|--8-x-x---------------------3--|x-x--------3-x-x----------------3-|
E|---------1-x-------------------|-----1-x-x------------------------|

G|-------------------------------|----------------------------------|
D|-------------1-1-x-3---0h1-----|-------------------1-1-x-3--------|
A|--------3-3----------------3---|-x-x--------3-x-3-------------3-2-|
E|-1--x-x------------------------|------1-x-x-----------------1-----|

[Sax Solo #2]

G|-------------------------------|----------------------------------|
D|-------------------------------|----------------------------------|
A|-1--1----1------------1--------|(1) ----1----------1--------------|  
E|--------------1--3-------------|------------1---3-----3---1-------|

G|-------------------------------|------3---1---0---1-----------0---|
D|-------------------------------|-------------------------3--------|
A|-1--1----1------------1--------|(1) ------------------------------|  
E|--------------1--3-------------|----------------------------------|

G|-------------------------------|----------------------------------|
D|-------------------------------|----------------------------------|
A|-1--1----1------------1--------|(1) ----1----------1--------------|  (x2)
E|--------------1--3-------------|------------1---3-----3---1-------| 

G|-------------------------------|----------------------------------|
D|--------------6----6-----------|--------------8----8--------------|
A|-----------6----6------6-------|-----------8----8-----------------|
E|--/4---4------------------4-5--|--6---6---------------------------|

[Mozart breakdown #2]

G|-------------------------------|----------------------------------|
D|-------------------------------|---------------2-----5------------|
A|--3-------------3--------------|---3-------3----------------------|
E|-----------3--------------3----|-------3--------------------------|



[Drum Solo]



[Daddy...he got a Tesla....]

G|---------------|---------------------------------|
D|---------------|---------------------------------|
A|-5-5-5-6-5-7-5-|-8-8-8-8-8-8-8-8-8-8-8-8-8-8-8-8-|
E|---------------|---------------------------------|

G|-----------------------------8h10-|---------------------------------|
D|----------------------------------|---------------------------------|
A|-8-8-8-8-8-8-8-8-8-8-8-8-8-8------|-8-8-8-8-8-8-8-8-8-8-8-8-8-8-8-8-|
E|----------------------------------|---------------------------------|

G|---10------7------8------9--------|---------------------------------|
D|----------------------------------|---------------------------------|
A|-8---8-0-5--5-0-6--6-0-7---7-0----|-8-8-8-8-8-8-8-8-8-8-8-8-8-8-8-8-|
E|----------------------------------|---------------------------------|

G|-------------------7/8------------|----------------------------------|
D|-----------------------8/10-6/8---|----------------------------------|
A|-8-8-8-8-8-8-8-8-8--------------6-|-8-8-8-8-8-8-8-8-8-8-8-8-8-8-8-8--|
E|----------------------------------|----------------------------------|

G|---10-8---------------------------|------------------10--------------|
D|--------10-9-8-6------------------|----------------------------------|
A|-8---------------8-6--------------|-8-8-8-8-8-8-8-8-8---8-8-8-8-8-8--|
E|---------------------8-7-6-4-6-4-4|----------------------------------|

G|---8--------------7-------8-------|------------------10--------------|
D|----------------------------------|----------------------------------|
A|-8--8-8-8-8-8-8-8---8-8-8---8-8---|-8-8-8-8-8-8-8-8-8---8-8-8-8-8-8--|
E|----------------------------------|----------------------------------|

G|-----8-----7-----8-----7-----8-10-|----------------------------------|
D|----------------------------------|----------------------------------|
A|-8-8---8-8---8-8---8-8---8-8------|-8-8-8-8-8-8-8-8-8-8-8-8-8-8-8-8--|
E|----------------------------------|----------------------------------|

G|---------------------7------8---9-|----------------------------------|
D|----------------------------------|----------------------------------|
A|-8-8-8-8-8-8-8-8-8-5---0--6---7---|-8-8-8-8-8-8-8-8-8-8-8-8-8-8-8-8--|
E|----------------------------------|----------------------------------|

G|-10-8-------------------------------|
D|------10-8/9\8-6-8-6----------------|
A|---------------------8-6------------|
E|-------------------------8-7-6-4-4-6|

[No drums/double synth trumpets]

G|-------------------------------|----------------------------------|
D|-------------1-1-x-3---0h1-----|------------------1-1--3-x-0h1----|
A|--------3-3----------------3---|x-x--------3-x-x---------------3--|  
E|-1--x-x------------------------|-----1-x-x------------------------|

G|-------------------------------|----------------------------------|
D|---------------1-x-3---0h1-----|-----------------0-1-x-x--------1-|
A|--------3-x----------------3---|x-x--------3-x-----------x-0-/3---|  
E|-1--x-x------------------------|-----1-x-x------------------------|

[Drums come back in - Outro]

G|-------------------------------|----------------------------------|
D|---------------1-x-3---0h1-----|------------------1-1--3-x-0h1----|
A|--------3-x----------------3---|x-x--------3-x-x---------------3--|  
E|-1--x-x------------------------|-----1-x-x------------------------|

G|-------------------------------|----------------------------------|
D|---------------1-x-3---0h1-----|---3-0-------3-0--------3-x-x-----|
A|--------3-x----------------3---|x------3-0--------x-1-------------|  
E|-1--x-x------------------------|----------------------------------|

G|------------5-x----------------|----------------------------------|
D|------5-6-7-----/6-5-3---------|-x-x-x-x-x-0-x---1-0--------------|
A|--x-5------------------x-x-----|---------------3-----3-1----------|
E|---------------------------1--1|--------------------------/5---/5-|

G|-------------------------------|----------------------------------|
D|---------------1-x-3---0h1-----|------------------1-1--3-x-0h1----|
A|--------3-x----------------3---|x-x--------3-x-x---------------3--|  
E|-1--x-x------------------------|-----1-x-x------------------------|

G|-------------------------------|----------------------------------|
D|-------------1-1-x-3---0h1-----|------------------1-1--3-x-0h1----|
A|--------3------------------3---|x-x--------3-x-x---------------3--|  
E|-1--x-x------------------------|-----1-1-x------------------------|

G|-------------------------------|----------------------------------|
D|-------------1-1-x-3--0h1------|---1-0-----0---------1-3-1---/6---|
A|-------3-3-x--------------3----|-x-----3-x--3-1------------3------|
E|-1-1-x-------------------------|----------------3/5---------------|

G|-------------------------------|----------------------------------|
D|-5-3---3/4\3-1---1-x-x-3--0h1--|-----------------1-1-x-3--0h1-----|
A|-----5---------3--------------3|-x-x-------3-x-x--------------3---|
E|-------------------------------|-----1-x-x------------------------|

G|-------------------------------|-----------0-3-1-2----------------|
D|-------------1-1-x-3--0h1------|-------------------3-1------------|
A|-------3-3-x---------------3---|-x-x-------------------3-2-1------|
E|-1-x-x-------------------------|-----1-x-x-------------------4-4--|

G|-------------------------------|----------------------------------|
D|-------------1-1-x-3--0h1------|-----------------1-1-x-3--0h1-----|
A|-------3-3-x---------------3---|-x-x-------3-3-x---------------3--|
E|-1-x-x-------------------------|-----1-x-x------------------------|

G|-------------------------------|----------------------------------|
D|-------------1-1-x-3--0h1------|-3-3-x----------------------------|
A|-------3-3-x--------------3----|-------0-1-0-2-0-3-0-5-0-6-0-7-0--|
E|-1-1-x-------------------------|----------------------------------|

G|-------------------------------|----------------------------------|
D|-3-1------------------3-x-x----|---3-------------1-0-x-x----------|
A|-----3-1---------3-x-x---------|-x---x-x-3-x-x-x---------3-1------|
E|---------/5-x-1-0-----------1-1|-----------------------------0-0--|

G|-------------------------------|----------------------------------|
D|-------------1-x-x-3-0h1-------|-x-x------------------------------|
A|-------3-x-x--------------3----|-----0-0-1-0-2-0-3-0-5-0-6-0-7-0--|
E|-1-x-x-------------------------|----------------------------------|

G|-------------------------------|
D|-------------------------------|
A|-8-----------------------------|
E|-------------------------------|




************************************

| x   Dead note
| (n) Ghost note
| h   Hammer-on
| b   Bend
| /   Slide up
| \   Slide down

************************************
Добавлено: 19.02.2018
Другие материалы по этой песне:
  • Аккорды и текст

Страница создана 19.02.2018
https://primanota.ru/vulfpeck/daddy-he-got-a-tesla-chords.htm

Привет, гитарист!

Тебе подарок от сайта PrimaNota.ru

Забрать подарок
ВАМ ПОДАРКИ ОТ ПРОЕКТА
"ГИТАРНАЯ РЕВОЛЮЦИЯ"