Войти:  Facebook Google Twitter Vk Yandex Mail.ru
PrimaNota.ru - самый крупный в мире бесплатный архив песенных текстов, аккордов, табулатур и нот


Vox Dei - Quítate La Mascara - таба, видео

Печатать
Просмотров: 66
Лучшая metal-группа Петербурга

Quítate La Mascara

  • аккорды и текст

Solo de la canción quítate la máscara, afinación estándar.

-------|-----------|-----------------|
-------|-----------|12b13~~~12h13h20T|
-------|-----------|-----------------|
---7b9-|-----------|-----------------|
-------|10-7-10-7~-|-----------------|
-------|-----------|-----------------|

----------------------------------------12|
15Tp13p12h13h15h17Tp15p13p12h13h15h17T~---|
------------------------------------------|
------------------------------------------|
------------------------------------------|
------------------------------------------|

17-15-13-------------------15|19-17-15-14-----------------19|
---------17-15-13-12-13------|------------17-15-14-15-------|
------------------------14---|------------------------16----|
-----------------------------|------------------------------|
-----------------------------|------------------------------|
-----------------------------|------------------------------|

19------------------------------------------|
---20-17-19-20-17-19-15-17-19-15-12-13-12---|
------------------------------------------14|
--------------------------------------------|
--------------------------------------------|
--------------------------------------------|

------------------------------|
12-13-12----------------------|
---------14-12-16-14-12-------|
------------------------16-12~|
------------------------------|
------------------------------|

-22b24~-22-20-19-17-20-19-17-15-19-17-15----14h15h|
-----------------------------------------17~------|
--------------------------------------------------|
--------------------------------------------------|
--------------------------------------------------|
--------------------------------------------------|

14-15-12-----12------------|
----------13----13-12-13-12|
---------------------------|
---------------------------|
---------------------------|
---------------------------|

-----------------0h2h3|8Tp3p2p0(4X)--0h2h3|7Tp3p2p0(4X)|7-8-10-12~~~~~|
----------------------|-------------------|------------|--------------|
12?-9-12-9------------|-------------------|------------|--------------|
-----------12-9~------|-------------------|------------|--------------|
----------------------|-------------------|------------|--------------|
----------------------|-------------------|------------|--------------|

Simbología:
b= Bend
T= Tapping
h= Hammer on
p= Pull off
~= Vibrato
(4x)= repetir 4 veces

Transcripto por Fernando Orellana, El Salvador.

Nota: Errores? Deben de haber muchos, esto solo es una pequeña
colaboración de lo que yo he alcanzado a sacar de este excelente
solo (aunque realmente es de Stryper) así que cualquier corrección
es bien recibida, cualquier consulta o queja
E-mail: fercohadoken@

Bendiciones.
Добавлено: 03.10.2014
Другие материалы по этой песне:
  • Аккорды и текст

Страница создана 03.10.2014
https://primanota.ru/vox-dei/quitate-la-mascara-chords.htm

Привет, гитарист!

Тебе подарок от сайта PrimaNota.ru

Забрать подарок
ВАМ ПОДАРКИ ОТ ПРОЕКТА
"ГИТАРНАЯ РЕВОЛЮЦИЯ"