Войти:  Facebook Google Twitter Vk Yandex Mail.ru
PrimaNota.ru - самый крупный в мире бесплатный архив песенных текстов, аккордов, табулатур и нот


Vox Dei - La Verdadera Historia De Sam El Montañés - аккорды, текст

Печатать
Лучшая metal-группа Петербурга

La Verdadera Historia De Sam El Montañés

  • аккорды, текст
Тональность: 
0
Проще! Аппликатуры

La Verdadera Historia De Sam El Montañés
Vox Dei
Intro:

     Am                                                
E||--------------------------|----------------------||
B||--1--1--1--1--1--1--1--1--|-------1--1--1--------||
G||--2--2--2--2--2--2--2--2--|-------2--2--2--------||
D||--2--2--2--2--2--2--2--2--|-------2--2--2--------||
A||--0--0--0--0--0--0--0--0--|--3p0--0--0--0--------||
E||--------------------------|----------------------||

Esto no es mas que un acorde de la menor, 
rasgalo como te parezca que suene mejor 
y hace el ligado con el dedo meñique


1) (igual que la intro)

desde dias viaje bajo la tempestad
voy en busca de mi cabaña de nogal

2)
C          G            Am
 Alguna estrella me vendra a contar
C      G            Am
 por adonde el caera

mi casa en la montaña
la tormenta pronto cesara

3)
y asi
F      Am
 poder encontrarla
F        Am
 debo de llegar
F              C                    G        Am
 tengo algunas cosas que quizas en casa faltaran

1)
mucho tiempo paso desde que me marche
y ahora vuelvo con muchas ganas de beber

2)
hay leña seca para el hogar
tambien hay vino y bastante pan
y esta mi nena en la puerta
con ganas de verme llegar

3) poder encontrarla....

4) con intro
E||--------------------------|
B||--------------------------|
G||-----------5--------------|
D||--7--5--7-----7--5h7--7---|
A||--------------------------|

E||---------------------------|
B||-----------5---------------|
G||--------------7--5h7--5----|
D||--7--5--7------------------|
A||---------------------------|

Esto lo hace primero la guitarra y despues lo mismo con la armonica

3) poder encontrarla...

final: con intro

E||---------------------------|
B||---------------------------|
G||-----5--7b(9)(7)-5--7--7/9-|
D||--7------------------------|

E||---------------------------|
B||---------------------------|
G||-----5--7--7--7/9----------|
D||--7------------------------|

Esto tambien lo hace la armonica   
https://primanota.ru/vox-dei/la-verdadera-historia-de-sam-el-montanes-chords.htm

Привет, гитарист!

Тебе подарок от сайта PrimaNota.ru

Забрать подарок
ВАМ ПОДАРКИ ОТ ПРОЕКТА
"ГИТАРНАЯ РЕВОЛЮЦИЯ"