Войти:  Facebook Google Twitter Vk Yandex Mail.ru
PrimaNota.ru - самый крупный в мире бесплатный архив песенных текстов, аккордов, табулатур и нот


Vocaloid - Worm Eaten Psychedelism - табы, видео

Печатать
Просмотров: 464
Лучшая metal-группа Петербурга

Worm Eaten Psychedelism

  • аккорды и текст

-------------------------------------------------------------------------------
                             Worm Eaten Psychedelism
-------------------------------------------------------------------------------
Tabbed by: clearx
*note: this is my first tab so please correct me if I did anything wrong


e|-0---------00------0-----0-3-2-3-2---0-------|
B|-0-0-------00--0-3---0-3-----------3---0-----|
G|-0-0-0-----00--------------------------------|
D|-0-0-0-----00--------------------------------|
A|-0-0-0--0--00--------------------------------|
E|-0-0-0--0--00--------------------------------|

Добавлено: 03.12.2014
Другие материалы по этой песне:
  • Аккорды и текст

Страница создана 03.12.2014
https://primanota.ru/vocaloid/worm-eaten-psychedelism-chords.htm

Привет, гитарист!

Тебе подарок от сайта PrimaNota.ru

Забрать подарок
ВАМ ПОДАРКИ ОТ ПРОЕКТА
"ГИТАРНАЯ РЕВОЛЮЦИЯ"