Войти:  Facebook Google Twitter Vk Yandex Mail.ru
PrimaNota.ru - самый крупный в мире бесплатный архив песенных текстов, аккордов, табулатур и нот


Монти Витторио - Czardas - бас-таба, видео

Печатать
Просмотров: 6591
Лучшая metal-группа Петербурга

Czardas


Авторы музыки: Vittorio Monti

-----------------------------------------------------------------------------
			     CZARDAS - Vittorio Monti
-----------------------------------------------------------------------------

Tabbed By : mstoakes
e-mail: mstokes0@googlemail.com

Tuning: G D A E

This version is from the original score for violin and piano, transposed onto bass. Many 
videos show the performer's own versions, so you can interpret this as you see fit. For 
youtube video of me playing this version use this URL: http://www.youtube.com/watch?v=BdX8w0T2E84

The main aspects for playing this piece are speed, consistency and control. For the slow 
try to be as expressive as possible, and for the techniques recommended look up the 
on the video.

The artificial harmonics section is tabbed left hand fret, then right hand harmonic in brackets.
 I.e. 19(31) - press the 19th fret, then touch the string with a right hand finger, or 
as I do, over the theoretical 31st fret (halfway between the 19th fret and the bridge in 
case).

Quite a difficult piece, in my opinion but a challenge is always good, so enjoy.


Slow, rubato
G|----------------14~---------------------------15~------|
D|-------------------------15-15-17-15h17p15-14----------|
A|12--15p13--12------------------------------------------|
E|-------------------------------------------------------|

G|-------------------------------------------------------|
D|------------14-17-17-15----14\12-12h14p12\11-12-14-15--|
A|13-13-12-16-------------16-----------------------------|
E|-------------------------------------------------------|

G|----------------14~---------------------------15~------|
D|-------------------------15-15-17-15h17p15-14----------|
A|12--15p13--12------------------------------------------|
E|-------------------------------------------------------|

G|-------------------------------------------------------||
D|---------------17~---(17)\14-14-12-12h14p12-11-12~-----||
A|13-13-12-17-16-----------------------------------------||
E|-------------------------------------------------------||

G||------------------9-12--10-9--------------------------|
D||*----------5/8h10-------------12-10\8--8h7--7h8p7--6-7|
A||*--------7--------------------------------------------|
E||--8~--(8)---------------------------------------------|

G|---------------6-9-------14------9p7-7h9p7\6-7-9-10--10|
D|---------2/5h7------11---------------------------------|
A|-------4---------------------12------------------------|
E|5~--(5)------------------------------------------------|

G|10----------9-10p9p8h9h10p9p8h9h10/12-10-9-9-----------|
D|-----8-8~-------------------------------------7-7------|
A|-------------------------------------------------------|
E|-------------------------------------------------------|

G|------------------------------------------------2------|
D|6-7-8-7-10--8--8h10p8-7-7h8p7-5-5h7p5-3-3h5p3-2--------|
A|-------------------------------------------------------|
E|-------------------------------------------------------|

G|-------------------------------------------------------||
D|2---2p0---0h2p0-------------0-------------------------*||
A|---------------------4--------------------------------*||
E|-------------------------------------------------------||


Fast, with pulse
G||------19----------------------------------------------|
D||*-----------20--19------------------------------------|
A||*-17-------------------20-19-17--16-17----------------|
E||------------------------------------------------------|

G|-------------------------------------------------------|
D|-------------------------------------------------------|
A|17-19-20-19-17-19-20-19-17-19-20-19-17-19-20-19--------|
E|-------------------------------------------------------|

G|-------------------------------------------------------|
D|-------------------------------------------------------|
A|20-----19---------18-----19----------------------------|
E|-------------------------------------------------------|

G|-------------------------------------------------------|
D|17-19-20-19-17-19-20-19-17-19-20-19-17-20-19-17--------|
A|-------------------------------------------------------|
E|-------------------------------------------------------|

G|-------------------------------------------------------|
D|15-17-19-17-15-17-19-17-15-17-19-17-15-19-17-15--------|
A|-------------------------------------------------------|
E|-------------------------------------------------------|

G|------------------12-14-15-14-12-----------------------|
D|---------12-14-15----------------15-14-12----14--------|
A|12-14-16----------------------------------16-----------|
E|-------------------------------------------------------|

G|-------------------------------------------------------||
D|14--------12---------------11-----------12------------*||
A|------------------------------------------------------*||
E|-------------------------------------------------------||

(Tapping section)
     L2 L1 L2 R1 L3 R2 L3 R1 L2 L1 L2 R1 L3 R2 L3 R1
G||--------------12-15-12----------------12-15-12--------|
D||*-10-9--10-14----------14-10-9--10-14----------14-----|
A||*-----------------------------------------------------|
E||------------------------------------------------------|

  L2 L1 L2 R2 L1 L3 R1 L1 L3
G|------------7--9--10-12-14~----------------------------|
D|8--7--8--10--------------------------------------------|
A|-------------------------------------------------------|
E|-------------------------------------------------------|

     L2 L1 L2 R1 L3 R2 L3 R1 L2 L1 L2 R1 L3 R2 L3 R1
G|---------------9--12-9-----------------9--12-9---------|
D|---7--6--7--11----------11-7--6--7--11----------11-----|
A|-------------------------------------------------------|
E|-------------------------------------------------------|

  L2 L1 L2 R2 L1 L2 R2 L2 R2
G|------------6--7--9-p7--10~----------------------------|
D|7--6--7--9---------------------------------------------|
A|-------------------------------------------------------|
E|-------------------------------------------------------|

G|-------------------------------------------------------|
D|20-19-17-19-20-19-17-19-20-19-17-19-20-19-17-20--------|
A|-------------------------------------------------------|
E|-------------------------------------------------------|

G|-------------------------------------------------------|
D|19-17-15-17-19-17-15-17-19-17-15-17-19-17-15-19--------|
A|-------------------------------------------------------|
E|-------------------------------------------------------|

G|------------------12-14-15-14-12-----------------------|
D|---------12-14-15----------------15-14-12----14--------|
A|12-14-16----------------------------------16-----------|
E|-------------------------------------------------------|

G|-------------------------------------------------------||
D|14--------12---------------11-----------12------------*||
A|------------------------------------------------------*||
E|-------------------------------------------------------||


Slower, dancing
G|7----2---2-4p2--0---------------------0-4~-------------|
D|4----4---4-4-------4--0h4-2-2h4p2\1-2------------------|
A|5---------------------2--------------------------------|
E|----------------------3--------------------------------|

             A.H.(R2)
G|---------9--9(21)\-p0-0-0------------------------------|
D|9\------------------------5p4-4h5p4\2-0-2/4------------|
A|---4-4/-------------------5---------------5------------|
E|--------------------------5----------------------------|

G|7----2---2-4p2--0---------------------0-4~-------------|
D|4----4---4-4-------4--0h4-2-2h4p2\1-2------------------|
A|5---------------------2--------------------------------|
E|----------------------3--------------------------------|
                        Rall.
G|7\-2-2--2--4--2--2-------------------------------------||
D|-----------------------2-0-0h2p0---------0-------------||
A|--------------------4-------------4--------------------||
E|-------------------------------------------------------||


Much slower, less pulse
G|19(31)-------------------------------------------------|
D|--------19(31)--19(31)-21(33)--19(31)--17(29)--16(28)--|
A|-------------------------------------------------------|
E|-------------------------------------------------------|

G|--------------------------------16(28)~----------------|
D|16(28)--14(26)--14(26)--17(29)-------------------------|
A|-------------------------------------------------------|
E|-------------------------------------------------------|

G|16(28)----------------------18(30)--16(28)-------------|
D|------19(31)-19(31)--19(31)---------------19(31)-17(29)|
A|-------------------------------------------------------|
E|-------------------------------------------------------|

G|-------------------------------------------------------|
D|17(29)-16(28)--16(28)--15(27)--16(28)------------------|
A|-------------------------------------------------------|
E|-------------------------------------------------------|

G|19(31)-------------------------------------------------|
D|--------19(31)--19(31)-21(33)--19(31)--17(29)--16(28)--|
A|-------------------------------------------------------|
E|-------------------------------------------------------|

G|--------------------------------16(28)~----------------|
D|16(28)--14(26)--14(26)--17(29)-------------------------|
A|-------------------------------------------------------|
E|-------------------------------------------------------|

G|19(31)----------------------------------18(30)-21(33)--|
D|------19(31)-19(31)-21(33)-19(31)-19(31)---------------|
A|-------------------------------------------------------|
E|-------------------------------------------------------|
                Rall.
G|19(31)-19(31)-18(30)-19(31)~---------------------------||
D|-------------------------------------------------------||
A|-------------------------------------------------------||
E|-------------------------------------------------------||

Fast, with pulse (Tapping section repeated)

     L2 L1 L2 R1 L3 R2 L3 R1 L2 L1 L2 R1 L3 R2 L3 R1
G|---------------12-17-12----------------12-17-12--------|
D|---10-9--10-14----------14-10-9--10-14----------14-----|
A|-------------------------------------------------------|
E|-------------------------------------------------------|

  L2 L1 L2 R2 L1 L3 R1 L1 L3
G|------------7--9--10-12-14~----------------------------|
D|8--7--8--10--------------------------------------------|
A|-------------------------------------------------------|
E|-------------------------------------------------------|

     L2 L1 L2 R1 L3 R2 L3 R1 L2 L1 L2 R1 L3 R2 L3 R1
G|---------------9--12-9-----------------9--12-9---------|
D|---7--6--7--11----------11-7--6--7--11----------11-----|
A|-------------------------------------------------------|
E|-------------------------------------------------------|

  L2 L1 L2 R2 L1 L2 R2 L2 R2
G|------------6--7--9-p7--10~----------------------------|
D|7--6--7--9---------------------------------------------|
A|-------------------------------------------------------|
E|-------------------------------------------------------|

G|-------------------------------------------------------|
D|20-19-17-19-20-19-17-19-20-19-17-19-20-19-17-20--------|
A|-------------------------------------------------------|
E|-------------------------------------------------------|

G|-------------------------------------------------------|
D|19-17-15-17-19-17-15-17-19-17-15-17-19-17-15-19--------|
A|-------------------------------------------------------|
E|-------------------------------------------------------|

                          Rall.
G|------------------12-14-15-14-13-14-13-14-16-18-19-----||
D|---------12-14-15--------------------------------------||
A|12-14-16-----------------------------------------------||
E|-------------------------------------------------------||

Major section
G|-------------------------------------------------------|
D|--------(2----------BARS------------REST)--------------|
A|-------------------------------------------------------|
E|-------------------------------------------------------|

G|-------19----------------------------------------------|
D|-------------21--19------------------------------------|
A|---17-------------------21-19-17--16-17----------------|
E|-------------------------------------------------------|

G|-------------------------------------------------------|
D|-------------------------------------------------------|
A|17-19-21-19-17-19-21-19-17-19-21-19-17-19-21-19--------|
E|-------------------------------------------------------|

G|-------------------------------------------------------|
D|-------------------------------------------------------|
A|21-----19---------18-----19----------------------------|
E|-------------------------------------------------------|

G|-------------------------------------------------------|
D|17-19-21-19-17-19-21-19-17-19-21-19-17-21-19-17--------|
A|-------------------------------------------------------|
E|-------------------------------------------------------|

G|-------------------------------------------------------|
D|16-17-19-17-16-17-19-17-16-17-19-17-16-19-17-16--------|
A|-------------------------------------------------------|
E|-------------------------------------------------------|

G|-------------------------------------------------------|
D|14-16-18-16-14-16-18-16-14-16-18-16-14-16-18-14--------|
A|-------------------------------------------------------|
E|-------------------------------------------------------|

  Rall.
G|-------------------------------------------------------|
D|19-19---19----19~--------------------------------------|
A|-----------------------16------------------------------|
E|-------------------------------------------------------|

  In tempo
G|19-19--------------------------------------------------|
D|0------21--19------------------------------------------|
A|17---------------21-19-17---16-17----------------------|
E|-------------------------------------------------------|

G|-------------------------------------------------------|
D|-------------------------------------------------------|
A|17-19-21-19-17-19-21-19-17-19-21-19-17-19-21-19--------|
E|-------------------------------------------------------|

G|-------------------------------------------------------|
D|-------------------------------------------------------|
A|21--19----18---19~-------------------------------------|
E|-------------------------------------------------------|

G|-------------------------------------------------------|
D|17-19-21-19-17-19-21-19-17-19-21-19-17-21-19-17--------|
A|-------------------------------------------------------|
E|-------------------------------------------------------|

G|-------------------------------------------------------|
D|16-17-19-17-16-17-19-17-16-17-19-17-16-19-17-16--------|
A|-------------------------------------------------------|
E|-------------------------------------------------------|

G|-------------------------------------------------------|
D|------------17-16-17-19-21-19-18-19-18-19-21-23-24-----|
A|19-18-19-21--------------------------------------------|
E|-------------------------------------------------------|


G|----7----7---<7>---------------------------------------|-||
D|7---0----0---<7>---------------------------------------|-||
A|0-------------5----------------------------------------|-||
E|-------------------------------------------------------|-||

| /   slide up
| \   slide down
| h   hammer-on
| p   pull-off
| ~   vibrato
| <>  harmonic
| x   Mute note
=============================================================================
Добавлено: 11.05.2012
Другие материалы по этой песне:

Страница создана 11.05.2012
https://primanota.ru/vittorio-monti/czardas-chords.htm

Привет, гитарист!

Тебе подарок от сайта PrimaNota.ru

Забрать подарок
ВАМ ПОДАРКИ ОТ ПРОЕКТА
"ГИТАРНАЯ РЕВОЛЮЦИЯ"