Войти:  Facebook Google Twitter Vk Yandex Mail.ru
PrimaNota.ru - самый крупный в мире бесплатный архив песенных текстов, аккордов, табулатур и нот


Violent Soho - Eightfold - таба, видео

Печатать
Просмотров: 82
Лучшая metal-группа Петербурга

Eightfold

  • аккорды и текст

[Intro]

e|---------------------------------------------------------------------------|
B|---------------------------------------------------------------------------|
G|---------------------------------------------------------------------------| x4
D|-5-5-5-4-4-4-0-x-x-x-x-x-x-------------------------------------------------|
A|-5-5-5-4-4-4-0-x-x-x-x-x-x-------------------------------------------------|
D|-5-5-5-4-4-4-0-x-x-x-x-x-x-------------------------------------------------|

e|---------------------------------------------------------------------------|
B|---------------------------------------------------------------------------|
G|---------------------------------------------------------------------------| x4
D|-5-5-5-4-4-4-0--0-0-0-0-0-0------------------------------------------------|
A|-5-5-5-4-4-4-0--0-0-0-0-0-0------------------------------------------------|
D|-5-5-5-4-4-4-0--0-0-0-0-0-0------------------------------------------------|


[Verse]

PM............................................................................
e|---------------------------------------------------------------------------|
B|---------------------------------------------------------------------------|
G|---------------------------------------------------------------------------| x8
D|-5-5-5-4-4-4-0--0-0-0-0-0-0------------------------------------------------|
A|-5-5-5-4-4-4-0--0-0-0-0-0-0------------------------------------------------|
D|-5-5-5-4-4-4-0--0-0-0-0-0-0------------------------------------------------|

e|---------------------------------------------------------------------------|
B|---------------------------------------------------------------------------|
G|---14--14--14--14----------------------------------------------------------| x4
D|---------------------------------------------------------------------------|
A|-12--12--12--12------------------------------------------------------------|
D|---------------------------------------------------------------------------|


[Pre-Chorus]

e|---------------------------------------------------------------------------|
B|---------------------------------------------------------------------------|
G|---------------------------------------------------------------------------| x2
D|-4-4-4-4-4-5-5-5-5-5-5-5-0-0-0-0-0-7-7-7-7-7-7-7---------------------------|
A|-4-4-4-4-4-5-5-5-5-5-5-5-0-0-0-0-0-7-7-7-7-7-7-7---------------------------|
D|-4-4-4-4-4-5-5-5-5-5-5-5-0-0-0-0-0-7-7-7-7-7-7-7---------------------------|


[Chorus]

e|---------------------------------------------------------------------------|
B|---------------------------------------------------------------------------|
G|---------------------------------------------------------------------------|
D|-4-4-4-4-4-5-5-5-5-5-5-5-0-0-0-0-0-7-7-7-7-7-7-7---------------------------|
A|-4-4-4-4-4-5-5-5-5-5-5-5-0-0-0-0-0-7-7-7-7-7-7-7---------------------------|
D|-4-4-4-4-4-5-5-5-5-5-5-5-0-0-0-0-0-7-7-7-7-7-7-7---------------------------|
                                                                               x2
e|---------------------------------------------------------------------------|
B|---------------------------------------------------------------------------|
G|-11-11-11-12-12-12-12-7-7-7-6-6-6-6----------------------------------------| 
D|---------------------------------------------------------------------------|
A|-9--9--9--10-10-10-10-5-5-5-4-4-4-4----------------------------------------|
D|---------------------------------------------------------------------------|


[Bridge]

e|---------------------------------------------------------------------------|
B|---------------------------------------------------------------------------|
G|---------------------------------------------------------------------------| x4
D|-5-5-5-4-4-4-0--0-0-0-0-0-0------------------------------------------------|
A|-5-5-5-4-4-4-0--0-0-0-0-0-0------------------------------------------------|
D|-5-5-5-4-4-4-0--0-0-0-0-0-0------------------------------------------------|
                                                                               
e|---------------------------------------------------------------------------|
B|------------------------------------19-19-19-19----------------------------|
G|-18-18-18-19-19-19-18-18-18-19-19-19---------------------------------------| x2
D|------------------------------------16-16-16-16----------------------------|
A|-16-16-16-17-17-17-16-16-16-17-17-17---------------------------------------|
D|---------------------------------------------------------------------------|


[Verse]

PM............................................................................
e|---------------------------------------------------------------------------|
B|---------------------------------------------------------------------------|
G|---------------------------------------------------------------------------| x4
D|-5-5-5-4-4-4-0--0-0-0-0-0-0------------------------------------------------|
A|-5-5-5-4-4-4-0--0-0-0-0-0-0------------------------------------------------|
D|-5-5-5-4-4-4-0--0-0-0-0-0-0------------------------------------------------|


[Pre-Chorus]

e|---------------------------------------------------------------------------|
B|---------------------------------------------------------------------------|
G|---------------------------------------------------------------------------| x2
D|-4-4-4-4-4-5-5-5-5-5-5-5-0-0-0-0-0-7-7-7-7-7-7-7---------------------------|
A|-4-4-4-4-4-5-5-5-5-5-5-5-0-0-0-0-0-7-7-7-7-7-7-7---------------------------|
D|-4-4-4-4-4-5-5-5-5-5-5-5-0-0-0-0-0-7-7-7-7-7-7-7---------------------------|


[Chorus]

e|---------------------------------------------------------------------------|
B|---------------------------------------------------------------------------|
G|---------------------------------------------------------------------------| x4 
D|-4-4-4-4-4-5-5-5-5-5-5-5-0-0-0-0-0-7-7-7-7-7-7-7---------------------------|
A|-4-4-4-4-4-5-5-5-5-5-5-5-0-0-0-0-0-7-7-7-7-7-7-7---------------------------|
D|-4-4-4-4-4-5-5-5-5-5-5-5-0-0-0-0-0-7-7-7-7-7-7-7---------------------------|
                                                                               
e|---------------------------------------------------------------------------|
B|---------------------------------------------------------------------------|
G|-11-11-11-12-12-12-12-7-7-7-6-6-6-6----------------------------------------| x2
D|---------------------------------------------------------------------------|
A|-9--9--9--10-10-10-10-5-5-5-4-4-4-4----------------------------------------|
D|---------------------------------------------------------------------------|


[Bridge]

e|---------------------------------------------------------------------------|
B|---------------------------------------------------------------------------|
G|---------------------------------------------------------------------------| x6
D|--0--0--0--0----0--0--0--0-------------------------------------------------|
A|---0--0--0--0----0--0--0--0------------------------------------------------|
D|-5--5--5--5--5-4--4--4--4--4-----------------------------------------------|


[Breakdown]

e|---------------------------------------------------------------------------|
B|---------------------------------------------------------------------------|
G|---------------------------------------------------------------------------| x4
D|-0-0-0-0-0-0-12-12-12-11-11-11-4-4-4-4-4-4-11-11-11-12-12-12-11-11-11------|
A|-0-0-0-0-0-0-12-12-12-11-11-11-4-4-4-4-4-4-11-11-11-12-12-12-11-11-11------|
D|-0-0-0-0-0-0-12-12-12-11-11-11-4-4-4-4-4-4-11-11-11-12-12-12-11-11-11------|


[Pre-Chorus]

e|---------------------------------------------------------------------------|
B|---------------------------------------------------------------------------|
G|---------------------------------------------------------------------------| x2
D|-4-4-4-4-4-5-5-5-5-5-5-5-0-0-0-0-0-7-7-7-7-7-7-7---------------------------|
A|-4-4-4-4-4-5-5-5-5-5-5-5-0-0-0-0-0-7-7-7-7-7-7-7---------------------------|
D|-4-4-4-4-4-5-5-5-5-5-5-5-0-0-0-0-0-7-7-7-7-7-7-7---------------------------|


[Chorus]

e|---------------------------------------------------------------------------|
B|---------------------------------------------------------------------------|
G|---------------------------------------------------------------------------| x4
D|-4-4-4-4-4-5-5-5-5-5-5-5-0-0-0-0-0-7-7-7-7-7-7-7---------------------------|
A|-4-4-4-4-4-5-5-5-5-5-5-5-0-0-0-0-0-7-7-7-7-7-7-7---------------------------|
D|-4-4-4-4-4-5-5-5-5-5-5-5-0-0-0-0-0-7-7-7-7-7-7-7---------------------------|
                                                                               
e|---------------------------------------------------------------------------|
B|---------------------------------------------------------------------------|
G|-11-11-11-12-12-12-12-7-7-7-6-6-6-6----------------------------------------| x2
D|---------------------------------------------------------------------------|
A|-9--9--9--10-10-10-10-5-5-5-4-4-4-4----------------------------------------|
D|---------------------------------------------------------------------------|


[Outro]

e|---------------------------------------------------------------------------|
B|---------------------------------------------------------------------------|
G|---------------------------------------------------------------------------| x4
D|-5-5-5-4-4-4-0--0-0-0-0-0-0------------------------------------------------|
A|-5-5-5-4-4-4-0--0-0-0-0-0-0------------------------------------------------|
D|-5-5-5-4-4-4-0--0-0-0-0-0-0------------------------------------------------|
                                                                               
e|---------------------------------------------------------------------------|
B|------------------------------------19-19-19-19----------------------------|
G|-18-18-18-19-19-19-18-18-18-19-19-19---------------------------------------| x2
D|------------------------------------16-16-16-16----------------------------|
A|-16-16-16-17-17-17-16-16-16-17-17-17---------------------------------------|
D|---------------------------------------------------------------------------|

************************************

| x   Dead note

************************************
Добавлено: 17.10.2017
Другие материалы по этой песне:
  • Аккорды и текст

Страница создана 17.10.2017
https://primanota.ru/violent-soho/eightfold-chords.htm

Привет, гитарист!

Тебе подарок от сайта PrimaNota.ru

Забрать подарок
ВАМ ПОДАРКИ ОТ ПРОЕКТА
"ГИТАРНАЯ РЕВОЛЮЦИЯ"