» 
 » 
Виктория Черенцова - Одиночество



Виктория Che Черенцова - Виктория Черенцова - Одиночество - табы

Чайковский в рок-аранжировке! Очень необычно, послушай!
Вступление:

     Bm                  Fm               B7/Fm         Bm              
E|---12-------12-------10-------10-------10-----13-----8------8------|
H|--13-----------------------10-------10------9------9-----10-----10-|
G|-14------14-------14----10-------10-------9------9-----9------9----|
D|------14-------14----0---------------------------------------------|
A|-0-------------------------------------11------------0-------------|
E|-------------------------------------------------------------------|
  Bdim          B7         Bm                                          
E|-8-----8-----7-----7-----------5-----5-----5-----------------------|
H|-----7-----7-----9-----9-----5-----5-----5-----5-------------------|
G|---8-----8-----7-----7-----5-----5-----5-----5---------------------|
D|-------------------------------------------------------------------|
A|-6-----------7-----------0-----------------------------------------|
E|-------------------------------------------------------------------|

         Bm                 B7sus2      
От всего уберечь тебя хочется,
    Gmaj7-5                           B          
От ненужных и скверных попутчиков,
      Fm                 Bm/B        
И рябого крыла одиночества,
           Fm6       B        Bm        
Что на лбу поселилось лучиком

               B                           F         
Нам инструкции в жизнь не выдали,
                    F/C                    B            Bmdim
Только имя, фамилию, отчество
             Fm7          F7               B    Gmaj7
Ты не плачь и не бойся, будь рядом, и
        Fm6      B       Bm      B7
Прогоню я твоё одиночество
              Fm7          F7               B     Gmaj7
Ты не плачь и не бойся, будь рядом, и
        Fm6      B       Bm        
Прогоню я твоё одиночество

Проигрыш=Вступление

По не топтаным тропам ступаешь ты,
Мне всё время обнять тебя хочется
Когда рушится мир и твои мечты -
Воды падают, камень не точится

Если б знать, где упасть или выкупить
У судьбы у злодейки пророчество...
Ты не плачь и не бойся, будь рядом, и
Прогоню я твоё одиночество
Ты не плачь и не бойся, будь рядом, и
Прогоню я твоё одиночество

Проигрыш=Вступление

Нам инструкции в жизнь не выдали,
Только имя, фамилию, отчество
Ты не плачь и не бойся, будь рядом, и
Прогоню я твоё одиночество
Ты не плачь и не бойся, будь рядом, и
И исчезнет твоё одиночество...

Окончание:

     Bm                  Fm               B7/Fm         Bm              
E|---12-------12-------10-------10-------10-----13-----8------8------|
H|--13-----------------------10-------10------9------9-----10-----10-|
G|-14------14-------14----10-------10-------9------9-----9------9----|
D|------14-------14----0---------------------------------------------|
A|-0-------------------------------------11------------0-------------|
E|-------------------------------------------------------------------|
  Bdim          B7         Bm                                          
E|-8-----8-----7-----7--------5--------------------------------------|
H|-----7-----7-----9-----9---5---------------------------------------|
G|---8-----8-----7-----7----5----------------------------------------|
D|-------------------------------------------------------------------|
A|-6-----------7-----------0-----------------------------------------|
E|-------------------------------------------------------------------|

Виктория Che Черенцова - Виктория Черенцова - Одиночество - ноты

(включить)
Другие композиции этого автора:
Другие материалы по этой песне:
  • Аккорды, текст

https://primanota.ru/viktoriya-che-cherencova/viktoriya-cherencova-odinochestvo-chords.htm

Привет, гитарист!

Тебе подарок от сайта PrimaNota.ru

Забрать подарок
ВАМ ПОДАРКИ ОТ ПРОЕКТА
"ГИТАРНАЯ РЕВОЛЮЦИЯ"