Войти:  Facebook Google Twitter Vk Yandex Mail.ru
PrimaNota.ru - самый крупный в мире бесплатный архив песенных текстов, аккордов, табулатур и нот


The Vibesmen - No Strings Attached - таба, видео

Печатать
Просмотров: 57
Лучшая metal-группа Петербурга

No Strings Attached

  • аккорды и текст

[Intro]

e|-----------------------------------------------------------------------------------------------------|
B|-----------------------------------------------------------------------------------------------------|
G|---------------------------------------4--x-x--4--4------6-x-x-6---------6--x-----6------------------|
D|------6-------6--------4--x-x--4-------4--x-x--4--4------4-x-x-4---------4--x-----x------6--x-x-6----|
A|------4--x----4--------4--x-x--4----2--2--x-x--2--2--/4--4-x-x-4h5p4-----4--x-----4------4--x-x-4----|
E|--5---5--x-5--5p0--2---2--x-x--2p0------------------------------------5--5--x--5--5p0-5--5--x-x-5p0--|

e|--------------------------------------------|
B|--------------------------------------------|
G|------------------4-4--x-x-6-6--x-x---------|
D|----4-x-x--4-4----4-4--x-x-4-4--x-x------6--|
A|----4-x-x--4-4----2-2--x-x-4-4--x-x------4--|
E|-2--2-x-x--2-2p0---------------------5---5--|


************************************

| x  Dead note
| h  Hammer-on
| p  Pull-off
| /  Slide up

************************************
Добавлено: 20.04.2018
Другие материалы по этой песне:
  • Аккорды и текст

Страница создана 20.04.2018
https://primanota.ru/vibesmen/no-strings-attached-chords.htm

Привет, гитарист!

Тебе подарок от сайта PrimaNota.ru

Забрать подарок
ВАМ ПОДАРКИ ОТ ПРОЕКТА
"ГИТАРНАЯ РЕВОЛЮЦИЯ"