Войти:  Facebook Google Twitter Vk Yandex Mail.ru
PrimaNota.ru - самый крупный в мире бесплатный архив песенных текстов, аккордов, табулатур и нот


Verse - Earth And Stone - таба, видео

Печатать
Просмотров: 162
Лучшая metal-группа Петербурга

Earth And Stone

  • аккорды и текст

ok, so this is my first guitar tab and i'm not 100% percent sure if it's accurate, so 
suggestions and critique is more than welcome

intro:
e-----------------------------------------------------|
B-----------------------------------------------------|
G-----------------------------------------------------|
D------11---11/9----9~--------11---11/9----9~---------|
A----9----9------9--9~------9----9------9--9~---------|
D--9----------------9~----9----------------9~---------|

e-----------------------------------------------------|
B-----------------------------------------------------|
G-----------------------------------------------------|
D------9----9/8----8~---------9----9/8----8~----------|
A----6---6------6--6~-------6---6------6--6~----------|
D--6---------------6~-----6---------------6~----------|

0:33-0:58
e------------------------|
B------------------------|
G-----------8888-9999----|
D--99999999-8888-9999----|
A--99999999-6666-7777----|
D--99999999--------------| x2

0:59-1:23
e----------------------|
B----------------------|
G----------------------|
D-22222222-66666-4444--|
A-22222222-66666-4444--|
D-22222222-66666-4444--| x4

1:24-2:02
e-------------------------|
B-------------------------|
G-----------8888-6666-----|
D-9999-8888-8888-6666-----|
A-9999-8888-6666-4444-----|
D-9999-8888---------------| X3

2:03-2:42
e--------------------------------------------------|
B--------------------------------------------------|
G--------------------------------------------------|
D-4-2-1-2~--4-2-11~---4-2-1-2~--4-2-1-6666-9999----|
A-4-2-1-2~--4-2-11~---4-2-1-2~--4-2-1-6666-9999----|
D-4-2-1-2~--4-2-11~---4-2-1-2~--4-2-1-6666-9999----| x4


2:42-
e----------------------|
B----------------------|
G----------------------|
D-22222222-66666-4444--|
A-22222222-66666-4444--|
D-22222222-66666-4444--| x4
Добавлено: 10.06.2012
Другие материалы по этой песне:
  • Аккорды и текст

Страница создана 10.06.2012
https://primanota.ru/verse/earth-and-stone-chords.htm

Привет, гитарист!

Тебе подарок от сайта PrimaNota.ru

Забрать подарок
ВАМ ПОДАРКИ ОТ ПРОЕКТА
"ГИТАРНАЯ РЕВОЛЮЦИЯ"