Войти:  Facebook Google Twitter Vk Yandex Mail.ru
PrimaNota.ru - самый крупный в мире бесплатный архив песенных текстов, аккордов, табулатур и нот


V8 - No Enloqueceré - таба, бас-таба, видео

Печатать
Просмотров: 102
Лучшая metal-группа Петербурга

No Enloqueceré

  • аккорды и текст

INTRO:
A
e|------------------------------------------------|
B|------------------------------------------------|x2
G|------------------5-----------------------------|
D|-----7-7^5----5-----------7-7^5----5------------|
A|------------7---7----------------7---7--3-------|
E|--5--------------------5------------------------|

A
e|------------------------------------------------|
B|------------------------------------------------|x2
G|------------------------------------------------|
D|----7-7^5----5--------------7-7^5----5----------|
A|-----------7---7-6^5\3-------------7---7-6-5----|
E|--5-----------------------5---------------------|

D
e|------------------------------------------------|
B|------------------------------------------------|x2
G|---------------------5-7------------------------|
D|---------------5-6-7---------------------5-6-7--|
A|--5--5-5-8^5-8--------------5--5-5-8^5-8--------|
E|------------------------------------------------|

A
e|------------------------------------------------|
B|------------------------------------------------|x2
G|------------------------------------------------|
D|----7-7^5----5--------------7-7^5----5----------|
A|-----------7---7-6^5\3-------------7---7--------|
E|--5-----------------------5---------------------| 

D5
Ya no estoy cansado,
D5
sé muy bien que hacer,
D5
ahora lo comprendo
D5
NO HE DE ENLOQUECER
E5
nada sigue igual,
D5/E5 
ya murió el ayer
D5/E5 D5
he parado de correr,
E5
nada sigue igual,
D5/E5
ya murio el ayer,
D5/E5 D5
ahora entiendo que
C5 B5
con la presencia de Dios aquí
C5 B5
mi alma no ha de morir,
C5 D5 E5
con ningún temor me han de confundir.

e|------------------------+------------------|
B|------------------------+------------------|x2
G|------------------------+------------------|
D|----7-7^5----5----------+----7-7^5----5----|
A|-----------7---7-6^5\3--+-----------7---7--|
E|--5---------------------+--5---------------|

F5 / G5 / A5
F5 / G5 / A5
F5 / G5 / A5

e|---------------------+----------------------|
B|---------------------+----------------------|x2
G|------------------5--+----------------------|
D|-----7-7^5----5------+-----7-7^5----5-------|
A|------------7---7----+------------7---7--3--|
E|--5------------------+--5-------------------|


SOLO GUITARRA CON BASE:
A5
D5
C5/D5
D5
C5/A5
A5
F5 / G5 / A5
F5 / G5 / A5
F5 / G5 / A5
F5 / G5 / A5

e|---------------------+---------------------------|
B|---------------------+---------------------------|x2
G|------------------5--+---------------------------|
D|-----7-7^5----5------+-----7-7^5----5------------|
A|------------7---7----+------------7---7--3-------|
E|--5------------------+--5------------------------|

e|------------------------+------------------------|
B|------------------------+------------------------|x2
G|------------------------+------------------------|
D|----7-7^5----5----------+----7-7^5----5----------|
A|-----------7---7-6^5\3--+-----------7---7-6-5----|
E|--5---------------------+--5---------------------|

e|--------------------------+----------------------|
B|--------------------------+----------------------|x2
G|---------------------5-7--+----------------------|
D|---------------5-6-7------+---------------5-6-7--|
A|--5--5-5-8-5-8------------+--5--5-5-8-5-8--------|
E|--------------------------+----------------------|

e|------------------------+------------------------|
B|------------------------+------------------------|x2
G|------------------------+------------------------|
D|----7-7^5----5----------+----7-7^5----5----------|
A|-----------7---7-6^5\3--+-----------7---7--------|
E|--5---------------------+--5---------------------|

Ya no estoy cansado,
sé muy bien que hacer,
ahora lo comprendo
no he de enloquecer.
nada sigue igual,
ya murio el ayer
he parado de correr,
nada sigue igual,
ya murio el ayer,
ahora si entiendo que
quien te induce a evadir
es quien te ha de reprimir,
con ese ardor no quiero seguir. 

e|------------------------+-------------------|
B|------------------------+-------------------|x2
G|------------------------+-------------------|
D|----7-7^5----5----------+----7-7^5----5-----|
A|-----------7---7-6^5\3--+-----------7---7a--|
E|--5---------------------+--5----------------|

F5 / G5 / A5
F5 / G5 / A5
F5 / G5 / A5~
Добавлено: 26.11.2014
Другие материалы по этой песне:
  • Аккорды и текст

Страница создана 20.09.2014
https://primanota.ru/v8/no-enloquecere-chords.htm

Привет, гитарист!

Тебе подарок от сайта PrimaNota.ru

Забрать подарок
ВАМ ПОДАРКИ ОТ ПРОЕКТА
"ГИТАРНАЯ РЕВОЛЮЦИЯ"