Войти:  Facebook Google Twitter Vk Yandex Mail.ru
PrimaNota.ru - самый крупный в мире бесплатный архив песенных текстов, аккордов, табулатур и нот


V8 - Momento De Luchar - таба, бас-таба, видео

Печатать
Просмотров: 99
Лучшая metal-группа Петербурга

Momento De Luchar

  • аккорды и текст

INTRO:
e|-----0^3^0^3^0----------------------------------|
B|--0------------0^3^0^3^0------------------------|
G|-------------------------0^3^0^3^0--------------|
D|-----------------------------------0------------|
A|---------------------------------------3/(5)\3--|
E|------------------------------------------------|

INTRO (2)
e|-------------------------------------------------|
B|-------------------------------------------------|X2
G|-------------------------------------------------|
D|-------------------------------------------------|
A|--9-------------12-11-14-9-------------12-11-14--|
E|--7-7-7-7-7-7---10-9--12-7-7-7-7-7-7---10-9--12--|

BASE
e|--------------------------------------------------------|
B|--------------------------------------------------------|
G|--------------------------------------------------------|
D|--------------------------------------------------------|
A|--9------------12-11-14-9-------------12---9------------|
E|--7-7-7-7-7-7--10-9--12-7-7-7-7-7-7---10---7-7-7-7-7-7--|


Basta de engaños,
el presente es dolor
ya vivo la realidad
y de ella es mi reacción


A5              B5
pues estoy cansado del llanto

A5              B5
que nunca algo me dio

F5#
de la calma

G5              A5
y la paciencia ante la represión


COMO INTRO (2)


me reiré, al ver sus caras,
expresando el dolor
producido por la blanca fuerza
de nuestra unión

pues estoy cansado del llanto
que nunca algo medio
de la calma y la paciencia
ante la represión


E5           C5  D5   E5   
ya es muy tarde para soñar

E5           C5  D5   E5  
es el momento de despertar

C5                   D5
las palabras y las flores

B5               E5 / C5
nada pudieron cambiar

D5
es el momento de luchar.


COMO INTRO

SOLO GUITARRA

FINAL:
e|-------------------------------------------------------------------------------------------|
B|-------------------------------------------------------------------------------------------|
G|-------------------------------------------------------------------------------------------|
D|--9---------9---------9---------9-8-7----9---------9---------9---------9-8-7---------------|
A|--7-7-7-7-7-7-7-7-7-7-7-7-7-7-7-------10-7-7-7-7-7-7-7-7-7-7-7-7-7-7-7-------10-9----------|
E|--------------------------------------------------------------------------------7-7-7-7-7--|

e|-----------------------------------------------------------------------|
B|-----------------------------------------------------------------------|
G|-----------------------------------------------------------------------|
D|-----------------------------------------------------------------------|
A|--9---------9---------9-8-7----9---------9---------9---------9-8-7-----|
E|--7-7-7-7-7-7-7-7-7-7-------10-7-7-7-7-7-7-7-7-7-7-7-7-7-7-7-------10--|

                          X3
e|------------------------+----------------------|
B|------------------------+----------------------|
G|------------------------+----------------------|
D|------------------------+----------------------|
A|-9------------12-11-14--+-12--11--12--14---9~--|
E|-7-7-7-7-7-7--10-9--12--+-10--9---10--12---7~--|
Добавлено: 22.10.2014
Другие материалы по этой песне:
  • Аккорды и текст

Страница создана 22.09.2014
https://primanota.ru/v8/momento-de-luchar-chords.htm

Привет, гитарист!

Тебе подарок от сайта PrimaNota.ru

Забрать подарок
ВАМ ПОДАРКИ ОТ ПРОЕКТА
"ГИТАРНАЯ РЕВОЛЮЦИЯ"