Войти:  Facebook Google Twitter Vk Yandex Mail.ru
PrimaNota.ru - самый крупный в мире бесплатный архив песенных текстов, аккордов, табулатур и нот


Untitled - Time Has Come - табы, видео

Печатать
Лучшая metal-группа Петербурга

Time Has Come

  • аккорды и текст

this is my first tab and it is one hindred persent corect i learned it from my guitar 
and he actialy lerneed the band hillsong and dont start this before the bass starts or 
song will be all messed up


E---------------------------------------------------------------------------|
A---------------------------------------------------------------------------|
D---------------------------------------------------------------------------|
G------14-14-14-14-14-14-14-14-14-14----------------------------------------|
B-----------------------------------12-14-----------------------------------|
E---------------------------------------------------------------------------|

E---------------------------------------------------------------------------|
A---------------------------------------------------------------------------|
D---------------------------------------------------------------------------|
G------13-13-13-13-13-13-13-13-13-13----------------------------------------|
B-----------------------------------12-14-----------------------------------|
E---------------------------------------------------------------------------|

E---------------------------------------------------------------------------|
A---------------------------------------------------------------------------|
D---------------------------------------------------------------------------|
G-----11-11-11-11-11-11-11-11-11-11-----9-9-9-9-9-9-9-9-9-9-----------------|
B----------------------------------10-9-------------------------------------|
E---------------------------------------------------------------------------|
you will repet this many times i dont know how many but retry this and then try it with 
music   
Добавлено: 06.09.2013
Другие материалы по этой песне:
  • Аккорды и текст

Страница создана 06.09.2013
https://primanota.ru/untitled/time-has-come-chords.htm

Привет, гитарист!

Тебе подарок от сайта PrimaNota.ru

Забрать подарок
ВАМ ПОДАРКИ ОТ ПРОЕКТА
"ГИТАРНАЯ РЕВОЛЮЦИЯ"