Войти:  Facebook Google Twitter Vk Yandex Mail.ru
PrimaNota.ru - самый крупный в мире бесплатный архив песенных текстов, аккордов, табулатур и нот


Two Feet - I Feel Like Im Drowning - табы


Capo 1st


e|----0-----3-----2-----0--|
B|----1-----0-----3-----0--|
G|----2-----0-----2-----1--| (X2)
D|----2-----0-----0-----2--|
A|-0--0-----2-----------2--|
E|-------3--3--2-----1-----|

[Verse]
dreaming...
e|----0-----3-----2-----0--|
B|----1-----0-----3-----0--|
G|----2-----0-----2-----1--| (X4)
D|----2-----0-----0-----2--|
A|-0--0-----2-----------2--|
E|-------3--3--2-----1-----|

e|---------------------|
B|---------------------|
G|-b7br--7--5--2--0----|
D|-------------------0-|
A|---------------------|
E|---------------------|

[Chorus]
e|---------------------------------------------------------------|
B|-------1-----------0-----------3-----------1-------------------|
G|-----2---2-------0---0-------2---2-------2---2----b7br--7--5--2|
D|---2-------2---0-------0---0-------0---3-------3---------------|
A|-0-------------------------------------------------------------|
E|-------------3-----------2-----------1-------------------------|

e|---------------------------------------------------------------------|
B|-------1-----------0-----------3-----------1-------------------------|
G|-----2---2-------0---0-------2---2-------2---2----b7br--7--5--7--5--7|
D|---2-------2---0-------0---0-------0---3-------3---------------------|
A|-0-------------------------------------------------------------------|
E|-------------3-----------2-----------1-------------------------------|

e|-------------------------------------------------------------------|
B|-------1-----------0-----------3-----------1------------8----------|
G|-----2---2-------0---0-------2---2-------2---2----b7br-----7--5--2-|
D|---2-------2---0-------0---0-------0---3-------3-------------------|
A|-0-----------------------------------------------------------------|
E|-------------3-----------2-----------1-----------------------------|

e|---------------------------------------------------------------------|
B|-------1-----------0-----------3-----------1-------------------------|
G|-----2---2-------0---0-------2---2-------2---2----b7br--7--5--7--52|
D|---2-------2---0-------0---0-------0---3-------3---------------------|
A|-0-------------------------------------------------------------------|
E|-------------3-----------2-----------1-------------------------------|

[Verse]
so plastic...
e|----0-----3-----2-----0--|
B|----1-----0-----3-----0--|
G|----2-----0-----2-----1--| (X4)
D|----2-----0-----0-----2--|
A|-0--0-----2-----------2--|
E|-------3--3--2-----1-----|

e|---------------------|
B|---------------------|
G|-b7br--7--5--2--0----|
D|-------------------0-|
A|---------------------|
E|---------------------|

[Chorus]
e|---------------------------------------------------------------|
B|-------1-----------0-----------3-----------1-------------------|
G|-----2---2-------0---0-------2---2-------2---2----b7br--7--5--2|
D|---2-------2---0-------0---0-------0---3-------3---------------|
A|-0-------------------------------------------------------------|
E|-------------3-----------2-----------1-------------------------|

e|---------------------------------------------------------------------|
B|-------1-----------0-----------3-----------1-------------------------|
G|-----2---2-------0---0-------2---2-------2---2----b7br--7--5--7--5--7|
D|---2-------2---0-------0---0-------0---3-------3---------------------|
A|-0-------------------------------------------------------------------|
E|-------------3-----------2-----------1-------------------------------|

e|-------------------------------------------------------------------|
B|-------1-----------0-----------3-----------1------------8----------|
G|-----2---2-------0---0-------2---2-------2---2----b7br-----7--5--2-|
D|---2-------2---0-------0---0-------0---3-------3-------------------|
A|-0-----------------------------------------------------------------|
E|-------------3-----------2-----------1-----------------------------|

e|---------------------------------------------------------------------|
B|-------1-----------0-----------3-----------1-------------------------|
G|-----2---2-------0---0-------2---2-------2---2----b7br--7--5--7--52-|
D|---2-------2---0-------0---0-------0---3-------3---------------------|
A|-0-------------------------------------------------------------------|
E|-------------3-----------2-----------1-------------------------------|

[Bridge]
e|----0-----3-----2-----0--|
B|----1-----0-----3-----0--|
G|----2-----0-----2-----1--| (X2)
D|----2-----0-----0-----2--|
A|-0--0-----2-----------2--|
E|-------3--3--2-----1-----|

e|----0-----3-----2-----0-----------------------------|
B|----1-----0-----3-----0-----------------------------|
G|----2-----0-----2-----1-----------------------------|
D|----2-----0-----0-----2--7--10--b13br--13--10--13--7|
A|-0--0-----2-----------2-----------------------------|
E|-------3--3--2-----1--------------------------------|

e|----0-----3-----2-----0--|
B|----1-----0-----3-----0--|
G|----2-----0-----2-----1--|
D|----2-----0-----0-----2--|
A|-0--0-----2-----------2--|
E|-------3--3--2-----1-----|

e|---------------------|
B|---------------------|
G|-b7br--7--5--2--0----|
D|-------------------0-|
A|---------------------|
E|---------------------|

[Chorus]
e|---------------------------------------------------------------|
B|-------1-----------0-----------3-----------1-------------------|
G|-----2---2-------0---0-------2---2-------2---2----b7br--7--5--2|
D|---2-------2---0-------0---0-------0---3-------3---------------|
A|-0-------------------------------------------------------------|
E|-------------3-----------2-----------1-------------------------|

e|---------------------------------------------------------------------|
B|-------1-----------0-----------3-----------1-------------------------|
G|-----2---2-------0---0-------2---2-------2---2----b7br--7--5--7--5--7|
D|---2-------2---0-------0---0-------0---3-------3---------------------|
A|-0-------------------------------------------------------------------|
E|-------------3-----------2-----------1-------------------------------|

e|-------------------------------------------------------------------|
B|-------1-----------0-----------3-----------1------------8----------|
G|-----2---2-------0---0-------2---2-------2---2----b7br-----7--5--2-|
D|---2-------2---0-------0---0-------0---3-------3-------------------|
A|-0-----------------------------------------------------------------|
E|-------------3-----------2-----------1-----------------------------|

e|---------------------------------------------------------------------|
B|-------1-----------0-----------3-----------1-------------------------|
G|-----2---2-------0---0-------2---2-------2---2----b7br--7--5--7--52-|
D|---2-------2---0-------0---0-------0---3-------3---------------------|
A|-0-------------------------------------------------------------------|
E|-------------3-----------2-----------1-------------------------------|



************************************

| b   Bend
| br  Bend release
|    Slide down
Другие композиции этого автора:
Другие материалы по этой песне:
  • Аккорды, текст

https://primanota.ru/two-feet/i-feel-like-im-drowning-chords.htm

Привет, гитарист!

Тебе подарок от сайта PrimaNota.ru

Забрать подарок
ВАМ ПОДАРКИ ОТ ПРОЕКТА
"ГИТАРНАЯ РЕВОЛЮЦИЯ"