Войти:  Facebook Google Twitter Vk Yandex Mail.ru
PrimaNota.ru - самый крупный в мире бесплатный архив песенных текстов, аккордов, табулатур и нот


Trivium - To The Rats - текст песни, табы, бас-таба

Печатать
Лучшая metal-группа Петербурга

To The Rats

  • аккорды, текст
  • gtp-табы

Авторы музыки: Paolo Gregoletto, Matt Heafy

trivium
to the rats
the crusade

this is a really fast song and is awesome!

intro: riff 1
E|-------------------------------------------------------------------------|
B|-------------------------------------------------------------------------|
G|-------------------------------------------------------------------------|
D|--------------3---------------------------------5------------------------|
A|-3-2-2-2-2-2-2--2-2-2-2-2-2-3-2-2-2-2-2-2-3-2-2-3------------------------|
E|-------------------------------------------------------------------------|

riff 2 
E|-------------------------------------------------------------------------|
B|-------------------------------------------------------------------------|
G|-------------------------------------------------------------------------|
D|-------5-4-------------5-------7-4-------------7-------------------------|
A|-2-0-2-3-2-2-2-2-2-2-2-3-2-0-2-5-2-2-2-2-2-2-2-5-------------------------|
E|-------------------------------------------------------------------------|

thats it for now :)
   
https://primanota.ru/trivium/to-the-rats-chords.htm

Привет, гитарист!

Тебе подарок от сайта PrimaNota.ru

Забрать подарок
ВАМ ПОДАРКИ ОТ ПРОЕКТА
"ГИТАРНАЯ РЕВОЛЮЦИЯ"