PrimaNota.ru - самый крупный в мире бесплатный архив песенных текстов, аккордов, табулатур и нот


Trevor James Musical Sound - Wither - аккорды и текст, видео

Регистрация Запомнить меня
Войти через:  Facebook Google Twitter Vk Yandex Mail.ru

Trevor James Musical Sound - Wither - аккорды и текст, видео

Печатать
Просмотров: 35
Лучшая metal-группа Петербурга
Wither
Trevor James Musical Sound
Wither

[Intro]

e|---------------------------------------------------------------------------|
B|----0--------0-------0------0-----------2-----2-----2-----2----------------|
G|-------1--------1-------1------1----------1-----1-----1-----1--------------|
D|--2--------2-------2------2-------2----------------------------------------|
A|--------------------------------------4-----4-----4-----4-----4------------|
E|---------------------------------------------------------------------------|


[Verse 1]

E                 C#m
I sit on top this lonely hill 
E                            C#m
Where my father's father came before 
E                             C#m
The weeds and dirt have christened me 
E                   C#m 
It's cold here and more 


[Interlude]

e|---------------------------------------------------------------------------|
B|----0--------0-------0------0-----------2-----2-----2-----2----------------|
G|-------1--------1-------1------1----------1-----1-----1-----1--------------|
D|--2--------2-------2------2-------2----------------------------------------|
A|--------------------------------------4-----4-----4-----4-----4------------|
E|---------------------------------------------------------------------------|


[Verse 2]

E              C#m
Underneath the dust and ash 
E                C#m
My skin a whiter shade of pale
E                     C#m 
Bones brittle and my soul is weak 
E                   C#m
No shelter from the hill 


[Interlude]

E  C#m  E  C#m


[Bridge]

E             C#m
I've perfected sinking and burning alone 
E             C#m
I've invested nothing in my soul
E                      C#m 
I've infested your heart, your spirit, your core 
E                     C#m
Let me waste away on my bed of thorns


[Interlude]

E  C#m  E  C#m
E  C#m  E  C#m


[Outro]

E
Добавлено: 20.04.2018
Другие материалы по этой песне:
  • Аккорды и текст

Страница создана 20.04.2018
https://primanota.ru/trevor-james-musical-sound/wither-chords.htm
Привет, Гость.
Предлагаем пройти революционный курс по гитаре.
Подарок от PrimaNota.Ru, забирай!