» 
 » 
Unravel



Tokyo Ghoul - Unravel - аккорды

Бесплатный вокальный онлайн-квест VOX7
Тональность: 
0
Масштаб: 
100%
Прокрутка: 
0
Проще!
Аппликатуры
Нотный режим
Unravel
Tokyo Ghoul
[ Предположительная тональность: D ]

e|-0-5-3-2--0-5-3-2--0-0-----------------------------------------------------|
B|------------------------3-3-1-3-0-----0------------------------------------|
G|------------------------------------0--------------------------------------|
D|---------------------------------------------------------------------------|
A|---------------------------------------------------------------------------|
E|----------------------------------0----------------------------------------|

e|-----------5/7-7---------3-2-2-2-3-3---------3/5-5-3---2-0---5---3---2---0-0-----------|
B|--0-0-0-0----------0---------------------0-----------------------------------3-3-1-3-0-|
G|-----------------0---------------------0-----------------------------------------------|
D|---------------------------0-------------------------------------------------0---------|
A|----3--------------------------------------------3---3-------3-----3-------------------|
E|---------------0---------------------0--------0------------0---------------------------|

e|--------------------------5/7-7---------3-2-2-2-3-3----------------------------------------|
B|------0-----0---0-0-0-0-----------0--------------------------------------------------------|
G|----0-----0---------------------0---0------------------------------------------------------|
D|------------------------------------------0------------------------------------------------|
A|---------------   3------------------------------------------------------------------------|
E|-0------0---------------------0------------------------------------------------------------|

(Em x4) x2

e|--7-0-0-5-0-0-3-0-7-0-0-5-0-0-3---|
B|----------------------------------|
G|----------------------------------|
D|----------------------------------|
A|----------------------------------|
E|----------------------------------|

Tokyo Ghoul - Unravel - ноты

(включить)
https://primanota.ru/tokyo-ghoul/unravel.htm

Привет, гитарист!

Тебе подарок от сайта PrimaNota.ru

Забрать подарок
ВАМ ПОДАРКИ ОТ ПРОЕКТА
"ГИТАРНАЯ РЕВОЛЮЦИЯ"