Войти:  Facebook Google Twitter Vk Yandex Mail.ru
PrimaNota.ru - самый крупный в мире бесплатный архив песенных текстов, аккордов, табулатур и нот


Tism - Hell Never Be An Ol Man River - табы

Печатать
Лучшая metal-группа Петербурга

Hell Never Be An Ol Man River

  • аккорды, текст

Tism - (He'll never be an) Ol' Man River
Drop D Tuning

This is a fairly easy song. Although most TISM songs are predominately 
keyboards, it's pretty obvious what is guitar. Just listen.

Intro (and In-between Verses)
E|---------------------------------------|
B|---------------------------------------|
G|---------------------------------------|
D|-9h10-10-10-9h10-10-10-9h10-10-10-5-5-5|
A|-9h10-10-10-9h10-10-10-9h10-10-10-5-5-5|
D|-9h10-10-10-9h10-10-10-9h10-10-10-5-5-5|

E|---------------------------------------|
B|---------------------------------------|
G|---------------------------------------|
D|-9h10-10-10-9h10-10-10-5-5-------------|
A|-9h10-10-10-9h10-10-10-5-5-------------|
D|-9h10-10-10-9h10-10-10-5-5-------------|

Keyboard Solo (For Guitar)
E|-12p9-11p9-16-------12p9-11p9-16-------|
B|--------------14-14--------------14-14-|
G|---------------------------------------|
D|---------------------------------------|
A|---------------------------------------|
D|---------------------------------------|

E|-12p9-11p9-16-------12p9-11p9-7-9-11---|
B|--------------14-14--------------------|
G|---------------------------------------|
D|---------------------------------------|
A|---------------------------------------|
D|---------------------------------------|

The rest is keys and samples. Please email me for corrections.
TISM are Australian, for you who don't know them.

Zak.

_________________________________________________________________
        
https://primanota.ru/tism/hell-never-be-an-ol-man-river-chords.htm

Привет, гитарист!

Тебе подарок от сайта PrimaNota.ru

Забрать подарок
ВАМ ПОДАРКИ ОТ ПРОЕКТА
"ГИТАРНАЯ РЕВОЛЮЦИЯ"