Войти:  Facebook Google Twitter Vk Yandex Mail.ru
PrimaNota.ru - самый крупный в мире бесплатный архив песенных текстов, аккордов, табулатур и нот


Them - Im Gonna Dress In Black - бас-таба, видео

Печатать
Просмотров: 303
Лучшая metal-группа Петербурга

Im Gonna Dress In Black

  • аккорды и текст

Авторы: M. Gillon, Howe

I'm Gonna Dress In Black
Them
Written by Thomas Kilpatrick (under the pseudonym M. Gillon); released as the 
B-side to "(It Won't Hurt) Half As Much" and later to "It's All Over Now Baby 
Blue". Also released on the album "Them".

6/8 time

Intro:
G|----------- -----------|----------- -----------|----------- -----------|
D|-----------------------|2-------------------2--|-----------------------|
A|0----------------------|----------------2------|0-------------------0--|
E|-----------------------|-----------------------|-----------------------|



G|----------- -----------|
D|2-------------------2--|
A|----------------2------|
E|-----------------------|
                      I'm

Verse:
G|----------- -----------|----------- -----------|----------- -----------|
D|-----------------------|2-------------------2--|-----------------------|
A|0----------------------|----------------2------|0----------------------|
E|-----------------------|-----------------------|-----------------------|
  wal      -      kin' a long             road    to Georgia,


G|----------- -----------|----------- -----------|----------- -----------|
D|2-------------------2--|-----------------------|2-------------------2--|
A|----------------2------|0----------------------|----------------2------|
E|-----------------------|-----------------------|-----------------------|
                 Yeah, the long           road,   ta      -       kin' me
                                             that's

G|----------- -----------|----------- -----------|----------- -----------|
D|-----------------------|-----------------------|-----------------------|
A|0----------------------|0----------------------|5----------------------|
E|-----------------------|-----------------------|-----------------------|
  back.                                   Gonna   live            in the hills,


G|----------- -----------|----------- -----------|----------- -----------|
D|-----------------------|--------------------2--|-----------------------|
A|5----------------------|0----------------------|0----------------------|
E|-----------------------|-----------------------|-----------------------|
                  far a - way             in  the hills,          And I'm


G|----------- -----------|----------- -----------|----------- -----------|
D|-----------------------|-----------------------|2----------------------|
A|1----------------------|1----------------------|--------------------2--|
E|--------------------1--|-----------------------|-----------------------|
  gon    -    na          dress       in          black.


G|----------- -----------|
D|2---------------2------|
A|------------2----------|
E|-----------------------|
                      Way

Verse:
G|----------- -----------|----------- -----------|----------- -----------|
D|-----------------------|2-------------------2--|-----------------------|
A|0----------------------|----------------2------|0----------------------|
E|-----------------------|-----------------------|-----------------------|
  high            in  the hills           in      Geor   -    gia,


G|----------- -----------|----------- -----------|----------- -----------|
D|2-------------------2--|-----------------------|2-------------------2--|
A|----------------2------|0----------------------|----------------2------|
E|-----------------------|-----------------------|-----------------------|
                     Gonna live           in an old               tent


G|----------- -----------|----------- -----------|----------- -----------|
D|-----------------------|-----------------------|-----------------------|
A|0----------------------|0----------------------|5-------------------0--|
E|-----------------------|-----------------------|-----------------------|
  shack.                                      No- bo- dy          I'll


G|----------- -----------|----------- -----------|----------- -----------|
D|-----------------------|-----------------------|-----------------------|
A|5---------------0---5--|-----------------------|0-----------0-------0--|
E|-----------------------|5-------------------0--|-----------------------|
  see,            and no  one     will    see     me,             And I'm


G|----------- -----------|----------- -----------|----------- -----------|
D|-----------------------|-----------------------|-----------------------|
A|1----------------------|1-----------1-------1--|3-----------3----------|
E|--------------------1--|-----------------------|-----------------------|
  gon    -    na          dress       in          black.


G|----------- -----------|
D|-----------------------|
A|3-----------3-------3--|
E|-----------------------|
                     'Cause

Bridge:
G|----------- -----------|----------- -----------|----------- -----------|
D|-----------------------|-----------------------|-----------------------|
A|3-----------3----------|3-----------3----------|3-----------3----------|
E|-----------------------|-----------------------|-----------------------|
  I           went        down        big     ci- ty,


G|----------- -----------|----------- -----------|----------- -----------|
D|-----------------------|-----------------------|-----------------------|
A|3-----------3----------|3-----------3----------|3-----------3----------|
E|-----------------------|-----------------------|-----------------------|
                      And mo- ney         and money       in  my      sack,


G|----------- -----------|----------- -----------|----------- -----------|
D|-----------------------|-----------------------|-----------------------|
A|3-----------3----------|3-----------3----------|1----------------------|
E|-----------------------|-----------------------|-----------------------|
                                          Found a girl,       so      fine,


G|----------- -----------|----------- -----------|----------- -----------|
D|-----------------------|-----------------------|-----------------------|
A|1-----------1----------|5-----------5----------|5-----------5----------|
E|-----------------------|-----------------------|-----------------------|
                          thought she was mine,                   But she


G|----------- -----------|----------- -----------|----------- -----------|
D|-----------------------|-----------------------|2---2---2---2---2---2--|
A|-----------------------|-----------------------|-----------------------|
E|4-----------4----------|4-----------4----------|-----------------------|
  left    me          without                 a   shirt       to      my


G|----------- -----------|
D|2---2---2---2---2---2--|
A|-----------------------|
E|-----------------------|
  back.               Way

Verse:
G|----------- -----------|----------- -----------|----------- -----------|
D|-----------------------|2-----------2-------2--|-----------------------|
A|0----------------------|----------------2------|0-----------0----------|
E|-----------------------|-----------------------|-----------------------|
  out             in the hills            in  Geor       -        gia,


G|----------- -----------|----------- -----------|----------- -----------|
D|2-------------------2--|-----------------------|2-------------------2--|
A|----------------2------|0-----------0----------|----------------2------|
E|-----------------------|-----------------------|-----------------------|
                      I'll live in        my  old                 tent


G|----------- -----------|----------- -----------|----------- -----------|
D|-----------------------|2----------------------|-----------------------|
A|0----------------------|-----------------------|5-----------5----------|
E|-----------------------|-----------------------|-----------------------|
  shack.                                  I'll    think   of      the time


G|----------- -----------|----------- -----------|----------- -----------|
D|-----------------------|-----------------------|-----------------------|
A|5-----------5-------5--|0-----------0----------|0-----------0----------|
E|-----------------------|-----------------------|-----------------------|
                     that wo- man             was mine,           And I'm


G|----------- -----------|----------- -----------|----------- -----------|
D|-----------------------|-----------------------|2----------------------|
A|1----------------------|1----------------------|--------------------2--|
E|----------------1---1--|-----------------------|-----------------------|
  gon       -         na  dress       in          black.


G|----------- -----------|
D|2---------------2------|
A|------------2----------|
E|-----------------------|
              Hey!

Verse (solo):
G|----------- -----------|----------- -----------|----------- -----------|
D|-----------------------|2-----------2-------2--|-----------------------|
A|0----------------------|----------------2------|0----------------------|
E|-----------------------|-----------------------|-----------------------|



G|----------- -----------|----------- -----------|----------- -----------|
D|2-----------2-------2--|-----------------------|2-----------2-------2--|
A|----------------2------|0----------------------|----------------2------|
E|-----------------------|-----------------------|-----------------------|



G|----------- -----------|----------- -----------|----------- -----------|
D|-----------------------|-----------------------|-----------------------|
A|0-----------0----------|0-----------0-------0--|5---------------0---0--|
E|-----------------------|-----------------------|-----------------------|



G|----------- -----------|----------- -----------|----------- -----------|
D|-----------------------|-----------------------|-----------------------|
A|5---------------0---5--|-----------------------|0-----------0----------|
E|-----------------------|5-------------------0--|-----------------------|



G|----------- -----------|----------- -----------|----------- -----------|
D|-----------------------|-----------------------|-----------------------|
A|1----------------------|1-----------1----------|3-----------3----------|
E|--------------------1--|-----------------------|-----------------------|



G|----------- -----------|
D|-----------------------|
A|3-----------3----------|
E|-----------------------|
                     'Cause

Bridge:
G|----------- -----------|----------- -----------|----------- -----------|
D|-----------------------|-----------------------|-----------------------|
A|3-----------3----------|3-----------3----------|3-----------3----------|
E|-----------------------|-----------------------|-----------------------|
  I   went,       I  went down        the big     city,


G|----------- -----------|----------- -----------|----------- -----------|
D|-----------------------|-----------------------|-----------------------|
A|3-----------3----------|3-----------3----------|3-----------3----------|
E|-----------------------|-----------------------|-----------------------|
                  I   had mo- ney,                    had money in my sack,


G|----------- -----------|----------- -----------|----------- -----------|
D|-----------------------|-----------------------|-----------------------|
A|3-----------3----------|3-----------3----------|1-----------1----------|
E|-----------------------|-----------------------|-----------------------|
                                          Found a girl,           so  fine,


G|----------- -----------|----------- -----------|----------- -----------|
D|-----------------------|-----------------------|-----------------------|
A|1-----------1-------3--|5-----------5----------|5-----------5----------|
E|-----------------------|-----------------------|-----------------------|
                        I thought she         was mine,           But she


G|----------- -----------|----------- -----------|----------- -----------|
D|-----------------------|-----------------------|2-----------2----------|
A|-----------------------|-----------------------|-----------------------|
E|4-----------4----------|4-----------4----------|-----------------------|
  left    me          without                 a   shirt       to  my  back.


G|----------- -----------|
D|2---2---2---2---2---2--|
A|-----------------------|
E|-----------------------|
              Yeah,

Verse:
G|----------- -----------|----------- -----------|----------- -----------|
D|-----------------------|2-------------------2--|-----------------------|
A|0----------------------|----------------2------|0----------------------|
E|-----------------------|-----------------------|-----------------------|
  way out,        way out     in  hills   in  Geor        -           gia,
                                the

G|----------- -----------|----------- -----------|----------- -----------|
D|2-------------------2--|-----------------------|2---------------2------|
A|----------------2------|0----------------------|------------2----------|
E|-----------------------|-----------------------|-----------------------|
                     I'll live            in  my  old             tent


G|----------- -----------|----------- -----------|----------- -----------|
D|-----------------------|2----------------------|--------------------7--|
A|0----------------------|------------0----------|5----------------------|
E|-----------------------|-----------------------|-----------------------|
  shack.                              I'm gonna   think   of      the time


G|----------- -----------|----------- -----------|----------- -----------|
D|-----------------------|-----------------------|-----------------------|
A|5---------------0---5--|-----------------------|0-------------------0--|
E|-----------------------|5-------------------0--|-----------------------|
                  oh, that woman          was mine,               and I'm


G|----------- -----------|----------- -----------|----------- -----------|
D|-----------------------|-----------------------|-----------------------|
A|1----------------------|1-----------1----------|3----------------------|
E|--------------------1--|-----------------------|--------------------3--|
  gon    -    na          dress       in          black,


G|----------- -----------|
D|-----------------------|
A|3-----------3----------|
E|-----------------------|
          yeah,   I'm

Outro:
G|----------- -----------|----------- -----------|----------- -----------|
D|-----------------------|-----------------------|-----------------------|
A|1-----------1----------|1-----------1----------|3---3---3---3-------3--|
E|-----------------------|-----------------------|-----------------------|
  gon    -    na                  dress in    black,


G|----------- -----------|----------- -----------|----------- -----------|
D|-----------------------|-----------------------|-----------------------|
A|3---3---3---3---3---3--|1----------------------|-----------------------|
E|-----------------------|-----------------------|-----------------------|
              woah, yeah,     I'm gonna           I'm gonna       dress in...
Fade out...

Please e-mail me for any corrections, or write a comment.
Добавлено: 26.04.2014
Другие материалы по этой песне:
  • Аккорды и текст

Страница создана 26.04.2014
https://primanota.ru/them/im-gonna-dress-in-black-chords.htm

Привет, гитарист!

Тебе подарок от сайта PrimaNota.ru

Забрать подарок
ВАМ ПОДАРКИ ОТ ПРОЕКТА
"ГИТАРНАЯ РЕВОЛЮЦИЯ"