» 
 » 
Blinding Lights



The Weeknd - Blinding Lights - аккорды

Чайковский в рок-аранжировке! Очень необычно, послушай!
  • аккорды, текст
Тональность: 
0
Масштаб: 
100%
Прокрутка: 
0
Проще!
Аппликатуры
Нотный режим
Blinding Lights
The Weeknd
[ Предположительная тональность: Eb ]

Riff 1:
e|----------------------|
B|--6--6-----6--8-------|
G|--------8--------5--8-|
D|----------------------|
A|----------------------|
E|----------------------|

Intro:
N/С
Yeah

Riff 2:
e|-13--13------13--15--------------13--13------13--15---------|
B|---------16----------13--16--------------16----------13--16-|
G|------------------------------------------------------------|
D|------------------------------------------------------------|
A|------------------------------------------------------------|
E|------------------------------------------------------------|

Riff 2:
e|--19--15----------19--15-------------|
B|----------19--16----------19--16--19-|
G|-------------------------------------|
D|-------------------------------------|
A|-------------------------------------|
E|-------------------------------------|

Verse 1:
                 Fm
I've been tryna call
                Cm7
I've been on my own for long enough
              Eb                   Bb
Maybe you can show me how to love, maybe
                       Fm
I'm going through withdrawals
               Cm7
You don't even have to do too much
                Eb                    Bb
You can turn me on with just a touch, baby

Pre-Chorus:
Bb
I look around and
Fm                       Cm7
Sin City's cold and empty (Oh)
                             Eb
No one's around to judge me (Oh)
                                 Bb
I can't see clearly when you're gone

Chorus:
        Fm        Cm7
I said, ooh, I'm blinded by the lights
    Eb                          Bb
No, I can't sleep until I feel your touch
         Fm        Cm7
I said, ooh, I'm drowning in the night
     Eb                                Bb
Oh, when I'm like this, you're the one I trust
N/С
Hey, hey, hey

Repeat Riff 2

Verse 2:
                    Fm
I'm running out of time
                     Cm7
'Cause I can see the sun light up the sky
              Eb                 Bb
So I hit the road in overdrive, baby, oh

Pre-Chorus:
Fm                         Cm7
The city's cold and empty (Oh)
                            Eb
No one's around to judge me (Oh)
                                 Bb
I can't see clearly when you're gone

Chorus:
        Fm        Cm7
I said, ooh, I'm blinded by the lights
    Eb                          Bb
No, I can't sleep until I feel your touch
        Fm        Cm7
I said, ooh, I'm drowning in the night
     Eb                                Bb
Oh, when I'm like this, you're the one I trust

Bridge:
                 Fm
I'm just walking by to let you know (By to let you know)
                 Cm7
I can never say it on the phone (Say it on the phone)
      Eb                    Bb
Will never let you go this time (Ooh)

Chorus:
        Fm        Cm7
I said, ooh, I'm blinded by the lights
    Eb                          Bb
No, I can't sleep until I feel your touch

N/С
Hey, hey, hey
N/С
Hey, hey, hey

Repeat Riff 2

Outro:
        Fm        Cm7
I said, ooh, I'm blinded by the lights
    Eb                          Bb
No, I can't sleep until I feel your touch

The Weeknd - Blinding Lights - ноты

(включить)
Другие композиции этого автора:
Другие материалы по этой песне:
  • Аккорды, текст

https://primanota.ru/the-weeknd/blinding-lights-chords.htm

Привет, гитарист!

Тебе подарок от сайта PrimaNota.ru

Забрать подарок
ВАМ ПОДАРКИ ОТ ПРОЕКТА
"ГИТАРНАЯ РЕВОЛЮЦИЯ"