PrimaNota.ru - самый крупный в мире бесплатный архив песенных текстов, аккордов, табулатур и нот


The Sunshine Company - On A Beautiful Day - бас-таба, видео

Регистрация Запомнить меня
Войти через:  Facebook Google Twitter Vk Yandex Mail.ru

The Sunshine Company - On A Beautiful Day - бас-таба, видео

Печатать
Просмотров: 84
Лучшая metal-группа Петербурга
Tabbed by: 6METAL6BASSIST6
E-mail: petergriffinav@gmail.com

Tuning: EADG

0:13

G|------|
D|------|
A|13\---|
E|------|

G|------------------------------------------------------------------------------------------------|
D|------------------------------------------------------------------------------------------------|
A|6-----------8-----------11----------8-----------6-----------8-----------11----------8-----13\---|
E|------------------------------------------------------------------------------------------------|

0:21

G|------------------------------------------------------------------------------------------------|
D|------------------------------------------------------------------------------------------------|
A|6-----------6---------6-5---------5-----------5-3-----------3-----------------------------6---6-|
E|----------6-------------------------3---------------------3-----------4-4---------4-3-----------|

G|------------------------------------------------------------------------------------------------|
D|------------------------------------------------------------------------------------------------|
A|8-----------8-----------8-----------8-----------------------------------------------------------|
E|----------8-----------8-----------8-----------6-4---------4-4-----------6-----------------------|

0:36

G|------------------------------------------------------------------------------------------------|
D|------------------------------------------------------------------------------------------------|
A|6---------6-6---------6-9-----9-----9-----9-----6-----------6---------6-9-----9-----9-----13\---|
E|----------------------------------------------------------6-------------------------------------|

0:44

G|------------------------------------------------------------------------------------------------|
D|------------------------------------------------------------------------------------------------|
A|6-----------6---------6-5---------5-----------5-3-----------3---------------------------------6-|
E|----------6-------------------------3---------------------3-----------4-4---------4-3-----------|

G|------------------------------------------------------------------------------------------------|
D|------------------------------------------------------------------------------------------------|
A|8-----------8-----------8-----------8-----------------------------------------------------------|
E|----------8-----------8-----------8-----------6-4---------4-4-----------6-----------------------|

0:58

G|------------------------------------------------------------------------------------------------|
D|------------------------------------------------------------------------------------------------|
A|6---------6-6---------6-9-----9-----9-----9-----6---------6-6---------6-9-----9-----9-----13\---|
E|------------------------------------------------------------------------------------------------|

1:06

G|------------------------------------------------------------------------------------------------|
D|------------6---------6-5---------5-------------------------6---------5-6---------5-------------|
A|6---------6-------------------------8-----------6---------6-------------------------8---------6-|
E|----------------------------------------6-----6-----------------------------------------6-8-----|

G|------------------------------------------------------------------------------------------------|
D|------------6---------6-5---------5-------------------------6---------5-6---------5-------------|
A|6---------6-------------------------8---------6-6---------6-------------------------8---------6-|
E|----------------------------------------6-8---------------------------------------------6-8-----|

1:20

G|------------------------------------------------------------------------------------------------|
D|----------------------------------10----8-6-----------------------------------------------------|
A|8-----------8-----------8-------------------6-------------6-------------------------------------|
E|----------8-----------8-----------------------4-4-----------4-----------6-----------------------|

1:27

G|------------------------------------------------------------------------------------------------|
D|------------------------------------------------------------------------------------------------|
A|6---------6-6---------6-9-----9-----9-----9-----6-----------6---------6-9-----9-----9-----13\---|
E|----------------------------------------------------------6-------------------------------------|

1:36

G|------------------------------------------------------------------------------------------------|
D|------------------------------------------------------------------------------------------------|
A|6-----------6---------6-5---------5-----------5-3-----------3-----------------------------6---6-|
E|----------6-------------------------3---------------------3-----------4-4---------4-3-----------|

G|------------------------------------------------------------------------------------------------|
D|------------------------------------------------------------------------------------------------|
A|8-----------8-----------8-----------8-----------------------------------------------------------|
E|----------8-----------8-----------8-----------6-4---------4-4---------4-6-----------------------|

1:50

G|------------------------------------------------------------------------------------------------|
D|------------------------------------------------------------------------------------------------|
A|6---------6-6---------6-9-----9-----9-----9-----6-----------6---------6-9-----9-----9-----13\---|
E|----------------------------------------------------------6-------------------------------------|

G|------------------------------------------------------------------------------------------------|
D|------------6---------6-5---------5-------------------------6---------5-6---------5-------------|
A|6---------6-------------------------8-----------6---------6-------------------------8---------6-|
E|----------------------------------------6-----6-----------------------------------------6-8-----|

G|------------------------------------------------------------------------------------------------|
D|------------6---------6-5---------5-------------------------6---------5-6---------5-------------|  until
A|6---------6-------------------------8---------6-6---------6-------------------------8---------6-| fadeout.
E|----------------------------------------6-8---------------------------------------------6-8-----|
Добавлено: 18.01.2018
Другие материалы по этой песне:
  • Аккорды и текст

Страница создана 18.01.2018
https://primanota.ru/the-sunshine-company/on-a-beautiful-day-chords.htm
Привет, Гость.
Предлагаем пройти революционный курс по гитаре.
Подарок от PrimaNota.Ru, забирай!