Войти:  Facebook Google Twitter Vk Yandex Mail.ru
PrimaNota.ru - самый крупный в мире бесплатный архив песенных текстов, аккордов, табулатур и нот


The Rabble - This World Is Dead - табы, бас-таба

Печатать
Лучшая metal-группа Петербурга

This World Is Dead

  • аккорды, текст

-------------------------------------------------------------------------------
                             THIS WORLD IS DEAD - The Rabble
-------------------------------------------------------------------------------
Tabbed by: BlacksailsTippa
Email: snake_tippa@hotmail.com

Tuning: standard EADGBe

pm .....

check 'em out at www.myspace.com/therabble and www.youtube.com/user/therabble



bass intro transcribed for guitar:

e|---------------------------------------------------------------------------|
B|---------------------------------------------------------------------------|
G|---------------------------------------------------------------------------|
D|---------------------------------------------------------------------------|
A|------7-7-7-7-7-7-5-3-5-3--------------------------------------------------|
E|---------------------------------------------------------------------------|


INTRO: 2x

e|---------------------------------------------------------------------------|
B|---------------------------------------------------------------------------|
G|-----------------10101010--99999-------------------------------------------|
D|-------777777777-10101010--99999-------------------------------------------|
A|-------777777777-8-8-8-8---77777-------------------------------------------|
E|-------555555555-----------------------------------------------------------|

VERSE

e|---------------------------------------------------------------------------|
B|---------------------------------------------------------------------------|
G|----------------10101010-99999------------10101010-99999-------------------|
D|-------7777777--10101010-99999----7777777-10101010-99999-------------------|
A|-------7777777--8-8-8-8--77777----7777777-8-8-8-8--77777-------------------|
E|-------5555555--------------------5555555----------------------------------|
         .......
e|---------------------------------5-5-5-5-5-5-------------------------------|
B|---------------------------------5-5-5-5-5-5-------------------------------|
G|---------------10101010-99999----5-5-5-5-5-5--10101010-99999---------------|
D|-------7777777-10101010-99999----7-7-7-7-7-7--10101010-99999---------------|
A|-------7777777-8-8-8-8--77777----7-7-7-7-7-7--8-8-8-8--77777---------------|
E|-------5555555-------------------5-5-5-5-5-5-------------------------------|
                                 |fast upstrokes|
e|---------------------------------------------------------------------------|
B|---------------------------------------------------------------------------|
G|---------------10101010-99999---------10101010-99999-----------------------|
D|-------7777777-10101010-99999-7777777-10101010-99999-----------------------|
A|-------7777777-8-8-8-8--77777-7777777-8-8-8-8--77777-----------------------|
E|-------5555555----------------5555555--------------------------------------|
         .......
e|--------------------------------5-5-5-5-5-5--------------------------------|
B|--------------------------------5-5-5-5-5-5--------------------------------|
G|---------------10101010-999999--5-5-5-5-5-5---10101010-99999---------------|
D|-------7777777-10101010-999999--7-7-7-7-7-7---10101010-99999---------------|
A|-------7777777-8-8-8-8--777777--7-7-7-7-7-7---8-8-8-8--77777---------------|
E|-------5555555------------------5-5-5-5-5-5--------------------------------|
                                |fast upstrokes|

BRIDGE "INTRO" 3X

e|---------------------------------------------------------------------------|
B|---------------------------------------------------------------------------|
G|---------------------------------------------------------------------------|
D|-101010-10-9-9-9-9--9-------------------------------3-3-3-3--3-2-2-2-2-777-|
A|-8-8-8--8--7-7-7-7--7-7-7-7-7--7--10-10-10-10--10---3-3-3-3--3-2-2-2-2-777-|
E|----------------------5-5-5-5--5---8--8--8--8---8---1-1-1-1--1-0-0-0-0-555-|
   .      .        .          .               .             .         .      


BRIDGE 2X

e|---------------------------------------------------------------------------|
B|---------------------------------------------------------------------------|
G|-10101010-9999999-9--------------------------------------------------------|
D|-10101010-9999999-9-7777777-------------333333-22222----777777-------------|
A|--8-8-8-8-7777777-7-7777777-1010101010--333333-22222----777777-------------|
E|--------------------5555555-8-8-8-8-8---111111-00000----555555-------------|
  
BREAKDOWN (similiar to the bass intro)

e|---------------------------------------------------------------------------|
B|---------------------------------------------------------------------------|
G|---------------------------------------------------------------------------|
D|--------------------------3-2----------------------3-2---------------------|
A|------7-7-7-7-7-5-3-5-3---3-2--7-7-7-7-7-5-3-5-3---3-2---------------------|
E|------5-------------------1-0--5-------------------1-0---------------------|

e|----------------------------------------------------------|----------------|
B|----------------------------------------------------------|----------------|
G|----------------------------------------------------------|----------------|
D|--------------------------3333-2222-----------------------|--3-2-7---------|
A|------7-7-7-7-7-5-3-5-3---3333-2222---7-7-7-7-7-5-3-5-3---|--3-2-7---------|
E|--------------------------1111-0000---5-------------------|--1-0-5---------|
                            .... ....
       \_________Do_This_As_Many_Times_Necessary__________/


e|---------------------------------------------------------------------------|
B|---------------------------------------------------------------------------|
G|---------10-12-----------10101010-99999------------------------------------|
D|----7777-----------77777-10101010-99999---7--------------------------------|
A|---------8--10-----77777-8-8-8-8--77777---7--------------------------------|
E|----5555-----------55555------------------5--------------------------------|


| /  slide up
| \  slide down
| h  hammer-on
| p  pull-off
| ~  vibrato
| +  harmonic
| x  Mute note
===============================================================================   
Другие материалы по этой песне:
  • Аккорды, текст

https://primanota.ru/the-rabble/this-world-is-dead-chords.htm

Привет, гитарист!

Тебе подарок от сайта PrimaNota.ru

Забрать подарок
ВАМ ПОДАРКИ ОТ ПРОЕКТА
"ГИТАРНАЯ РЕВОЛЮЦИЯ"