Войти:  Facebook Google Twitter Vk Yandex Mail.ru
PrimaNota.ru - самый крупный в мире бесплатный архив песенных текстов, аккордов, табулатур и нот


The Panics - In Your Head - таба, видео

Печатать
Просмотров: 159
Лучшая metal-группа Петербурга

In Your Head

  • аккорды и текст

-------------------------------------------------------------------------------
                             In Your Head - THE PANICS
-------------------------------------------------------------------------------
Tabbed by: Stiubhard

This tab is probably pale in comparison to the work of Jae, but it works really well for
of us that aren't exactly a whizz at guitar. The chordal version is fairly straight
but I wanted to have a go at plucking my way through and it turned out not half bad. 
have the lyrics up up with the chords as it is easier to write out with them and then
replace those with this line of plucking as they are all the same shapes. ENJOY


Capo on 2

e|-------3----------------3---------------3---------------3----------------------|
B|-------0------0---------0------0--------0------0--------0------0---------------|
G|---------------0----------------0---------------0---------------0--------------|
D|-------------------------------------------------------------------------------|
A|-- -2----------------2---------------2---------------2-------------------------|
E|--- 3------3---------3------3--------3------3--------3------3------------------|

1st verse

e|------0------------------------------------2---------------3---------------|
B|------1--------1---------0-----------------3-----3---------0-----0---------|
G|----------------2--------0------0-----------------2---------------0--------|
D|-----------------2---------------2-----0-----------0-----------------------|
A|--0--------0----------------------2----0-------0-------2-------------------|
E|---------------------0-------0-------------------------3------3------------|

e|------0------------------------------------2---------------3---------------|
B|------1--------1---------0-----------------3-----3---------0-----0---------|
G|----------------2--------0------0-----------------2---------------0--------|
D|-----------------2---------------2-----0-----------0-----------------------|
A|--0--------0----------------------2----0-------0-------2-------------------|
E|---------------------0-------0-------------------------3------3------------|

e|------------------2------------------------------------3-------------------|
B|---0--------------3-----3------------1-----------------0-----0-------------|
G|---0-----0---------------2-----------0-----0------------------0------------|
D|----------2---0------------0---2------------2------------------------------|
A|-----------2--0------0---------3--------3----3----2------------------------|
E|-0-----0------------------------------------------3-------3----------------|

e|------------------2------------------------------------3-------------------|
B|---0--------------3-----3------------1-----------------0-----0-------------|
G|---0-----0---------------2-----------0-----0------------------0------------|
D|----------2---0------------0---2------------2------------------------------|
A|-----------2--0------0---------3--------3----3----2------------------------|
E|-0-----0------------------------------------------3-------3----------------|


CHORUS
e|---------------0-------------2-----------------------0---------------------|
B|---0----------------0--------3------3------1---1----------1------0---1--1--|
G|---0-----0-----------0---------------2----------0----------0-------------2-|
D|----------2---------------------------------------------------2---0---0----|
A|--------------------------0------0------3----3-----3----3------------------|
E|-0-----0-----0----0--------------------------------------------------------|


e|-------3----------------3--------------------------3------------|
B|-------0------0---------0------0--------1h0--------0----0-------|
G|---------------0----------------0------------------------0------|
D|----------------------------------------------------------------|
A|-- -2----------------2---------------3---------2----------------|
E|--- 3------3---------3------3------------------3-------3--------|

Repeat again for 2nd verse and Chorus then I like to add a little break before the Bridge:

2x
e|---------------2---------------------0---------|
B|----0----0---------3-------1----1------1-------|
G|----------0---------2------------0------0------|
D|-----------------------------------------------|
A|-2----2-----0----0-----3------3----3-----------|
E|-----------------------------------------------|

Bridge:
e|-----1-----------------------------------------1-------------------0-------|
B|-----0-----0-------1-----1--------0----0-------0----0-----1---1------1-----|
G|------------0-------------0-------------0------------0---------0------0----|
D|---------------------------------------------------------------------------|
A|-2--------------3-----3---------------------2-----------3---3----3---------|
E|-3------3---------------------0------0------3-----3------------------------|

              |There's a sound...        ||Repeat this method until you get to "well"||
e|----0----------------------||----0-------||---------3--------------3-------------|
B|-----1-------0----0-----------------0--------------0-----0--------0----0---------|
G|------0------------0------------------0-------------------0-------------0--------|
D|---------------------------------------------------------------------------------|
A|-3---------------------------------------------2--------------2------------------|
E|----------0----0-----------||-0-----0----||------3------3-------3-----3----------|


Repeat Verse and Chorus then I add another break just before last chorus

e|---------------2---------3---------3-------------|
B|----0----0---------3--------0----------0---------|
G|----------0---------2--------0----------0--------|
D|-------------------------------------------------|
A|-2----2-----0----0-------------------------------|
E|-----------------------3---3----3----3-----------|

e|---------------2---------------------0---------|
B|----0----0---------3-------1----1------1-------|
G|----------0---------2------------0------0------|
D|-----------------------------------------------|
A|-2----2-----0----0-----3------3----3-----------|
E|-----------------------------------------------|

e|---------------2---------3---------3-----------|
B|----0----0---------3--------0----------0-------|
G|----------0---------2--------0----------0------|
D|-----------------------------------------------|
A|-2----2-----0----0-----------------------------|
E|-----------------------3---3----3----3---------|

That leads into final chorus
Добавлено: 21.04.2012
Другие материалы по этой песне:
  • Аккорды и текст

Страница создана 21.04.2012
https://primanota.ru/the-panics/in-your-head-chords.htm

Привет, гитарист!

Тебе подарок от сайта PrimaNota.ru

Забрать подарок
ВАМ ПОДАРКИ ОТ ПРОЕКТА
"ГИТАРНАЯ РЕВОЛЮЦИЯ"