Войти:  Facebook Google Twitter Vk Yandex Mail.ru
PrimaNota.ru - самый крупный в мире бесплатный архив песенных текстов, аккордов, табулатур и нот


The Nothing - Guilty Of Everything - табы, видео

Печатать
Лучшая metal-группа Петербурга

Guilty Of Everything

  • аккорды и текст

[Intro]

e|-----------------------------------------------------------------------------------|
B|----------------4--------------0--------------5(p)--4-------------------------4----|
G|-----------4---------4--------------4--------------------4---------------4---------|x3
D|------6-------------------6--------------6--------------------------6--------------|
A|--------------------------------------------------------------4--------------------|
E|-0---------------------------------------------------------------------------------|

e|-------------------------------------------------------------------------------|
B|----------------4--------------0--------------5(p)--4---------------------4----|
G|-----------4---------4--------------4--------------------4---------------------|
D|------6-------------------6--------------6--------------------------6----------|
A|--------------------------------------------------------------4----------------|
E|-0-----------------------------------------------------------------------------|

e|-------------------------------0-----------------------------------------------|
B|----------------2--------------------2---------0-------------------------------|
G|-----------1---------1--------------------1---------1--------------------1-----|x2
D|------2-------------------2-------------------------------2---------2----------|
A|-0-------------------------------------------------------------2---------------|
E|-------------------------------------------------------------------------------|

                     E       Emaj7
e|-----------------------------------------------------------------------------|
B|-------------------5---------4-----------------------------------------------|
G|-------------------4---------4-----------------------------------------------|
D|-------------------6---------6-----------------------------------------------|
A|-------------------7---------7-----------------------------------------------|
E|-----------------------------------------------------------------------------|


[Chorus]
       Dbmin       A         E       Emaj7
e|--------4--------5-----------------------------------------------------------|
B|--------5--------5---------5--------4----------------------------------------|
G|--------6--------6---------4--------4----------------------------------------|
D|--------6--------7---------5--------5----------------------------------------|
A|--------4--------7---------6--------6----------------------------------------|
E|-----------------5-----------------------------------------------------------|

************************************

| p   Pull-off

************************************   
Добавлено: 12.12.2017
Другие композиции этого автора:
Другие материалы по этой песне:
  • Аккорды и текст

Страница создана 12.12.2017
https://primanota.ru/the-nothing/guilty-of-everything-chords.htm

Привет, гитарист!

Тебе подарок от сайта PrimaNota.ru

Забрать подарок
ВАМ ПОДАРКИ ОТ ПРОЕКТА
"ГИТАРНАЯ РЕВОЛЮЦИЯ"