Войти:  Facebook Google Twitter Vk Yandex Mail.ru
PrimaNota.ru - самый крупный в мире бесплатный архив песенных текстов, аккордов, табулатур и нот


The Falcon - Building The Even More Perfect Asshole Parade - текст песни, бас-таба, видео

Печатать
Просмотров: 173
Лучшая metal-группа Петербурга

Building The Even More Perfect Asshole Parade

  • аккорды и текст

----------------------------------------------------------------------------
	Building The Even More Perfect Asshole Parade - The Falcon
----------------------------------------------------------------------------

Tabbed By : xnighttrainx	
e-mail: agent_0range182@yahoo.com

Tuning: Standard

Intro
G|-------------------------------------------------------------------------|
D|-------------------------------------------------------------------------|
A|-1/7-7-7-7-7-7-7-7-------------------------------------------------------|
E|-------------------------------------------------------------------------|

Verse
G|-------------------------------------------------------------------------|
D|-------------------------------------------------------------------------|
A|-7-7-7-7-7-7-7-7-4-4-4-4-4-4-4-4-4-2-2-2-2-2-2-2-2-0-0-0-0-0-0-0-0-------|
E|-------------------------------------------------------------------------|

Chorus
G|-------------------------------------------------------------------------|
D|-------------------------------------------------------------------------|
A|-77777777----------------------------------------------------------------|
E|----------77777777-99999999-55555555-------------------------------------|

Bridge
G|-------------------------------------------------------------------------|
D|----------------99-------------------------------------------------------|
A|-77777777777777----------------------------------------------------------|
E|-------------------777777777777777-9999999999999999-7-555555555555-------|

Outro 
G|-------------------------------------------------------------------------|
D|-------------------------------------------------------------------------|
A|-4-4-4-4-4-4-4-4-0-0-0-0-0-0-0-0-----------------2-2-2-2-2-2-2-2---------|
E|---------------------------------0-0-0-0-0-0-0-0-------------------------|

Then
G|-------------------------------------------------------------------------|
D|-------------------------------------------------------------------------|
A|-44444444-00000000----------22222222-------------------------------------|
E|-------------------00000000----------------------------------------------|

Last time play this (listen for the timing of the last notes)
G|-------------------------------------------------------------------------|
D|-------------------------------------------------------------------------|
A|-44444444-00000000----------22-4-7~--------------------------------------|
E|-------------------00000000----------------------------------------------|

Order
Intro x1
Verse x4
Chorus x2
Verse x6 (Second verse, strum straight through the notes.  Just listen to it to get it)
Bridge x2
Chorus x4
Outro x4
Next part
Last part 


| /  slide up
| \  slide down
| h  hammer-on
| p  pull-off
| ~  vibrato
| +  harmonic
| x  Mute note
============================================================================
Добавлено: 24.06.2012
Другие материалы по этой песне:
  • Аккорды и текст

Страница создана 28.05.2012
https://primanota.ru/the-falcon/building-the-even-more-perfect-asshole-parade-chords.htm

Привет, гитарист!

Тебе подарок от сайта PrimaNota.ru

Забрать подарок
ВАМ ПОДАРКИ ОТ ПРОЕКТА
"ГИТАРНАЯ РЕВОЛЮЦИЯ"