Войти:  Facebook Google Twitter Vk Yandex Mail.ru
PrimaNota.ru - самый крупный в мире бесплатный архив песенных текстов, аккордов, табулатур и нот


The Faceless - Autotheist Movement II Emancipate - табы

Печатать
Лучшая metal-группа Петербурга

Autotheist Movement II Emancipate

  • аккорды, текст
  • gtp-табы

           The Faceless
Autotheist movement II : Emancipate (sweep)
            Autotheism
               \m/

This is just that sexy ass sweep

-----------------10-13p10--------------|
--------------11----------11-----------|
-----------10----------------10--------|
--------12----------------------12-----|
--10-13----------------------------13--|
---------------------------------------|

---------------10h11h13h17/18\17p13p10----------|
-------------11-----------------------11--------|
-----------10---------------------------10------|
---------12-------------------------------12----|
--9/10-13-----------------------------------13--|
------------------------------------------------|

----------------9-13p9--------------|
-------------11--------11-----------|
----------10--------------10--------|
-------11--------------------11-----|
--9-13--------------------------13--|
------------------------------------|


--------------9h11h13h20/21\20p13p10-------------|
------------11-----------------------11----------|
----------10---------------------------10--------|
--------11-------------------------------11------|
--8/9-13-----------------------------------13----|
-------------------------------------------------|

Hail   
https://primanota.ru/the-faceless/autotheist-movement-ii-emancipate-chords.htm

Привет, гитарист!

Тебе подарок от сайта PrimaNota.ru

Забрать подарок
ВАМ ПОДАРКИ ОТ ПРОЕКТА
"ГИТАРНАЯ РЕВОЛЮЦИЯ"