Войти:  Facebook Google Twitter Vk Yandex Mail.ru
PrimaNota.ru - самый крупный в мире бесплатный архив песенных текстов, аккордов, табулатур и нот


The Black Belles - What Can I Do - табы

Печатать
Лучшая metal-группа Петербурга

What Can I Do

  • аккорды, текст

The black belles - what can i do?
(black cab sessions)

tabbed by:      DVVVDM
Tuning:         standard

Most of the song is just E chord moved around the board.
Please give me some feedback on what you think about the tab.

Intro: (4X)
e|-0-------|---------|---------|
B|-X-------|---------|---------|
G|-3-------|---------|---------|
D|-X-------|---------|---------|
A|-2-2-2-2-|-2-2-2-2-|-2-2-2-2-|
E|-0-0-0-0-|-0-0-0-0-|-0-0-0-0-|


Verse: (3X)
e|-7---7---|-7-7-7-0-|-7---7---|-7-7-7-0-|
B|-7---7---|-7-7-7-0-|-7---7---|-7-7-7-0-|
G|-8---8---|-8-8-8-8-|-8---8---|-8-8-8-8-|
D|-9---9---|-9-9-9-9-|-9---9---|-9-9-9-9-|
A|-9---9---|-9-9-9-9-|-9---9---|-9-9-9-9-|
E|-7---7---|-7-7-7-0-|-7---7---|-7-7-7-0-|

e|-5---5---|-5-5-5-0-|-4---3---|---5-7---|
B|-5---5---|-5-5-5-0-|-4---3---|---5-7---|
G|-6---6---|-6-6-6-6-|-5---4---|---6-8---|
D|-7---7---|-7-7-7-7-|-6---5---|---7-9---|
A|-7---7---|-7-7-7-7-|-6---5---|---7-9---|
E|-5---5---|-5-5-5-0-|-4---3---|---5-7---|


Chorus: (3X)
e|-8---8--5-3|-2--2-5-7|
B|-8---8--5-3|-2--2-5-7|
G|-9---9--6-4|-3--3-6-8|
D|-10--10-7-5|-4--4-7-9|
A|-10--10-7-5|-4--4-7-9|
E|-8---8--5-3|-2--2-5-7|


End on: (1X)
e|-8-------|
B|-8-------|
G|-9-------|
D|-10------|
A|-10------|
E|-8-------|   
https://primanota.ru/the-black-belles/what-can-i-do-chords.htm

Привет, гитарист!

Тебе подарок от сайта PrimaNota.ru

Забрать подарок
ВАМ ПОДАРКИ ОТ ПРОЕКТА
"ГИТАРНАЯ РЕВОЛЮЦИЯ"