PrimaNota.ru - самый крупный в мире бесплатный архив песенных текстов, аккордов, табулатур и нот


Band - Strawberry Wine - текст песни, таба, видео

Регистрация Запомнить меня
Войти через:  Facebook Google Twitter Vk Yandex Mail.ru

Band - Strawberry Wine - текст песни, таба, видео

Печатать
Просмотров: 104
Лучшая metal-группа Петербурга
Robbie Robertson's guitar part from The Band's "Strawberry Wine" on the Album "Stage Fright". 

Listen through the left speaker.


[Intro]

e|-------------------------------------88--8-8--5---------------------------10-10-7--10-10---5---3--|
B|-----------------------7b-5----------88--8-8--5---------------9b--7-------10-10-7--10-10---5---3--|
G|--------------5h6-5h6--7b-5------------------------------7h8--9b--7--7h8-------------------6---4--|
D|---2----------5---5----------7------------------------9--------------9---------------------7---5--|
A|-------------------------------------------------------------------------------------------7---5--|
E|-----2-3-4-----------------------5----------------------------------------------------------------|


[Verse]

    I would try my finger, and I would try my hand

e|--0----------------0--------0---------------0-------0------------|
B|--0----------------0--2-(0)-0---------------0-2-(0)-0------------|
G|--1----------------1--2-(0)-1---------------1-2-(0)-1------------|
D|--2----------------2--2-(0)-2---------------2-2-(0)-2------------|
A|--2----------------2--0-----2---------------2-0-----2------------|
E|--0----------------0--------0---------------0-------0------------|


    At any fools's game in this man's land

e|----------------------------------------------------------------------------|
B|---------------------------3------------------------------------------------|
G|---------------------------1------------------------------------------------|
D|---------------------------2------------------------------------------------|
A|---------------------------2------------------------------------------------|
E|---------------------------0----------(0)-(2)-(3)-(4)-----------------------|


    But don't you talk about this a-friend of mine                           I ain't never been let down..

e|-----------------------------------------------------3--2--0--x--3-2-0-----------------------------|
B|-----------------------------------------------------3--2--0--x--3-2-0--------(0)------------------|
G|----------------2----2---2b3p0----2b3p0-----2----2------------------------0h1----------------------|
D|----------------2----2---------2------------2----2-------------------------------(4~)--0h2-0h2-----|
A|--------------0----0----------------------0----0-----------------------------------------------0---|
E|-------------------------------------------------------------------------------------------------3-|


e|-----0-0--0-0------0-----0------------------------------------------|
B|----/5-5--3-3---------------0---------------------------------------|
G|---------------3/4---3/4------4\2-0h1p0-----------------------------|
D|----------------------------------------2p0-------------------------|
A|--------------------------------------------------------------------|
E|--------------------------------------------------------------------|


[Verse 2]

    I would scratch and steal, I would maim a man/ I would even hunt a bounty across the other county

e|--0-------------------------0--------0---------------0-------0---------------------------------------|
B|--0-------------------------0--2-(0)-0---------------0-2-(0)-0---------------------------------------|
G|--1-------------------------1--2-(0)-1---------------1-2-(0)-1---------------------------------------|
D|--2-------------------------2--2-(0)-2---------------2-2-(0)-2---------------------------------------|
A|--2-------------------------2--0-----2---------------2-0-----2---------------------------------------|
E|--0-------------------------0--------0---------------0-------0-----------------------(0)-(2)-(3)-(4)-|


    But don't you talk about this a-friend of mine                           

e|-----------------------------------------------------3--2--0-----------------------------------|
B|-----------------------------------------------------3--2--0---3-------------------------------|
G|----------------2----2---2b3p0-------------2----2----------------2b4r2-2b4r2p0--0h1------------|
D|----------------2----2---------------------2----2-----------------------------------2----0-----|
A|--------------0----0----------------------0----0---------------------------------------2----2--|
E|-----------------------------------------------------------------------------------------------|


  I give it all of my money, but it makes me feel fine

e|------------------------------------------------------------9-7--------------------------|
B|---------------------------------------------------------9----------9----9--7--5---------|
G|-----------------------------------------------------------------------------------------|
D|-----------------------------2p0----0----------------7/9---------7/9--7/9----------------|
A|---------------------------------2----2--------------------------------------------0-----|
E|-------------------------------------------------------------------------------------3---|


[Verse 3]

    I know you won't give me no peace of mind/ Try to understand I just wanna feel good all the time

e|--0-------------------------0--------0---------------0-------0---------------------------------------|
B|--0-------------------------0--2-(0)-0---------------0-2-(0)-0---------------------------------------|
G|--1-------------------------1--2-(0)-1---------------1-2-(0)-1---------------------------------------|
D|--2-------------------------2--2-(0)-2---------------2-2-(0)-2---------------------------------------|
A|--2-------------------------2--0-----2---------------2-0-----2---------------------------------------|
E|--0-------------------------0--------0---------------0-------0-----------------------(0)-(2)-(3)-(4)-|


    But don't you talk about a dear old friend of mine                      well I know..
                  
e|-----------------------------------------------------3--2--0--x--3-2-0-------------------|
B|-----------------------------------------------------3--2--0--x--3-2-0-------------------|
G|----------------2----2--------------------------------------------------0h1--------------|
D|----------------2----2------------------------------------------------------2------------|
A|--------------0----0---------------------------------------------------------------------|
E|-----------------------------------------------------------------------------------------|
 


   that you we sweet and more than double fine, everybody says you oughta marry that rich man down the line
                  
e|------------------------------------------------------------------------|
B|------------------------------------------------------------------------|
G|------------------------------------------------------------------------|
D|----------------4----4------------------4------4------------------------|
A|------------------------------------------------------------------------|
E|------------------------------------------------------------------------|



   But if I had to make a choice I wouldn't change my mind, 
                  
e|---------------------------------------------------------------------------|
B|------------------------2-0------------------------------------------------|
G|------------------------2-0------------------------------------------------|
D|-------------------------------------------------44-66-44-66---------------|
A|-------------------------------------------------22-22-22-22--0------------|
E|---------------------------------------------------------------------------|


   Honey you just ain't as sweet as my strawberry wine, oh no
                  
e|--------------------------------------------------------------------------0-----|
B|--------------------------------------------------------------------------------|
G|----------------------------------------------------------------------0h1-------|
D|------------------------------------------------------------0-2-----2-----------|
A|------------------------------------------------------0h2-2---------------------|
E|--------------------------------------------------------------------------------|


   No, no no no no no no  no no/               No, no no no no no no  no no
                  
e|--------------------------------------------------------------------------------0------------------|
B|--5--5--0--3--2--0----------------------------5--5--0--3--2--0-----------------------------(2)-3-2-|
G|--------------------0h1-----------------------------------------0-1----------0h1-------(2)-(2)-----|
D|-------------------------22-----------------------------------------2------2-----------------------|
A|---------------------------------------------------------------------------------------------------|
E|---------------------------------------------------------------------------------------------------|

                 (Not sure what happens here -- Improvise in A and let the keyboard lead...)  Yeah, ya

e|----------------------------------------------------------------------------------------------------|
B|----2--2------------------------------------------5--7--5--7--5-------------?????------15b15b15b15b-|
G|----2--2--------------------0-2~--------------5h6---------------------------------------------------|
D|----2--2-------0h2 2----2-2-------------------------------------------------------------------------|
A|----0--0----2---------------------------------------------------------------------------------------|
E|----------------------------------------------------------------------------------------------------|


[Verse 4]

  Caught me when I was down, Sleeping in the park

e|--0----------------0--------0---------------0-------0------------|
B|--0----------------0--2-(0)-0---------------0-2-(0)-0------------|
G|--1----------------1--2-(0)-1---------------1-2-(0)-1------------|
D|--2----------------2--2-(0)-2---------------2-2-(0)-2------------|
A|--2----------------2--0-----2---------------2-0-----2------------|
E|--0----------------0--------0---------------0-------0------------|


    Climbin' up the walls and laughin' in the dark

e|---------------------------------------------------------------------------|
B|---------------------------------------------------------------------------|
G|---------------------------------------------------------------------------|
D|---------------------------------------------------------------------------|
A|---------------------------------------------------------------------------|
E|-------------------------------------(0)-(2)-(3)-(4)-----------------------|


    But I heard you were talkin' about a dear old friend of mine                          

e|------------------------------------------------------------3--2--0-----------------------------------|
B|------------------------------------------------------------3--2--0---3-------------------------------|
G|----------------2----2--------------2----2------------------------------2b4r2-2b4r2p0--0h1------------|
D|----------------2----2--------------2----2-------------------------------------------------2----------|
A|--------------0----0---------------0----0-------------------------------------------------------------|
E|------------------------------------------------------------------------------------------------------|

   Never tasted anything as sweet as my strawberry wine

e|------------------------------------------------------0---0--0------0-------------|
B|-----------------------------------------------------5--3---2---------------------|
G|---------------------0------------------------------------------3s4----2b3--2-0---|
D|-----------------0h2---2--------------------------------------------------------2-|
A|----------------------------------------------------------------------------------|
E|----------------------------------------------------------------------------------|

   No, no no no no no no  no no/               No, no no no no no no  no no
                  
e|-----------------------------------------------------------------x--3-2-0---------------------------3--|
B|--5--5--0--3--2--0----------------------------5--5--0--3--2--0---x--3-2-0--3-2-0------2~--0---------3--|
G|--------------------0h1----------------------------------------------------------0h1--2~--0---------1--|
D|-------------------------22-----------------------------------------------------------------2-0-2---2--|
A|----------------------------------------------------------------------------------------------------2--|
E|----------------------------------------------------------------------------------------------------0--|



************************************

| x    Dead note
| (n)  Ghost note
| h    Hammer-on
| p    Pull-off
| r    Release
| b    Bend
| /    Slide up
| \    Slide down
| ~    Vibrato

************************************
Добавлено: 23.01.2018
Другие материалы по этой песне:
  • Аккорды и текст

Страница создана 25.09.2013
https://primanota.ru/the-band/strawberry-wine-chords.htm
Привет, Гость.
Предлагаем пройти революционный курс по гитаре.
Подарок от PrimaNota.Ru, забирай!