Войти:  Facebook Google Twitter Vk Yandex Mail.ru
PrimaNota.ru - самый крупный в мире бесплатный архив песенных текстов, аккордов, табулатур и нот


The Answer - Red - табы

Печатать
Лучшая metal-группа Петербурга

Red

  • аккорды, текст

Авторы: Tyler Bryant, Neil Mason

I couldn't find any tablature for this solo, or song in general, so I figured I'd tell you how I play it.
-James

e|--12------12h15p12----12-------|--------------------------|------------------------|
B|--15b17------------15----15b17-|-15b17--15--14--12--14b16-|-14b16--14--12--14------|
G|-------------------------------|--------------------------|--------------------12--|
D|-------------------------------|--------------------------|------------------------|
A|-------------------------------|--------------------------|------------------------|
E|-------------------------------|--------------------------|------------------------|

e|----------12------15p12-|---------12------15p12-|--------12-|-------------------|
B|--12--15------12--------|-12--15------12--------|-12--15----|-13h14-----13h14---|
G|------------------------|-----------------------|-----------|--------14---------|
D|------------------------|-----------------------|-----------|-------------------|
A|------------------------|-----------------------|-----------|-------------------|
E|------------------------|-----------------------|-----------|-------------------|

                                                                  PM
e|--12--14-|-14b15--14--12--14--12-|-----------------------------------------|
B|---------|-----------------------|-14b16br14p12--14--12--------------------|
G|---------|-----------------------|-14b16br14p12--14--12--------------------|
D|---------|-----------------------|-----------------------14p12------12--14-|
A|---------|-----------------------|------------------------------14---------|
E|---------|-----------------------|-----------------------------------------|

     PM                                      PM          PM
e|-----------|---------------------------------------------------|---15p12----|
B|-------12--|--14b16br14p12--14--12-------------------------12--|---------14-|
G|-------12--|--14b16br14p12--14--12-------------------------12--|------------|
D|-----------|------------------------14p12-------12--14---------|------------|
A|---14------|-------------------------------14-----------14-----|------------|
E|-----------|---------------------------------------------------|------------|

e|-15p12----15p12----15p12----15p12----17p12----15p12----15p12---|-15p12------|
B|-------14-------14-------14-------14-------14-------14------14-|-------14---|
G|---------------------------------------------------------------|------------|
D|---------------------------------------------------------------|------------|
A|---------------------------------------------------------------|------------|
E|---------------------------------------------------------------|------------|

e|---17p12------15p12-----17--17b19--17--15------15--17--15-|-----------------|
B|---------14---------14---------------------17-------------|-17~~------------|
G|----------------------------------------------------------|-----------------|
D|----------------------------------------------------------|-----------------|
A|----------------------------------------------------------|-----------------|
E|----------------------------------------------------------|-----------------|



************************************

| x   Dead note
| g   Grace note
| (n) Ghost note
| h   Hammer-on
| p   Pull-off
| r   Release
| >   Accented note
| t   Tapping
| b   Bend
| br  Bend release
| pb  Pre-bend
| pbr Pre-bend release
| /   Slide up
| \   Slide down
| ~   Vibrato
| s   Slap
| P   Pop
| PM  Palm mute
| TR  Trill
| N   Tremolo

************************************   
https://primanota.ru/the-answer/red-chords.htm

Привет, гитарист!

Тебе подарок от сайта PrimaNota.ru

Забрать подарок
ВАМ ПОДАРКИ ОТ ПРОЕКТА
"ГИТАРНАЯ РЕВОЛЮЦИЯ"