Войти:  Facebook Google Twitter Vk Yandex Mail.ru
PrimaNota.ru - самый крупный в мире бесплатный архив песенных текстов, аккордов, табулатур и нот


The Answer - New Horizon - таба, видео

Печатать
Просмотров: 137
Лучшая metal-группа Петербурга

New Horizon

  • аккорды и текст

-------------------------------------------------------------------------------
                             New Horizon - The Answer
-------------------------------------------------------------------------------
Tabbed by: lzparkma

Tuning: standard E


Intro

e|---------------------------------|-----------------------------------------|
B|---------------------------------|-----------------------------------------|
G|--7-7---------------------10-----|--7-7-------------------5-5-5------------|
D|--7-7--8-8-8-8--5--5-5-5--10-10--|--7-7--8-8-8--5--5-5-5--5-5-5------------|
A|--5-5--8-8-8-8--5--5-5-5---8-10--|--5-5--8-8-8--5--5-5-5--3-3-3------------|
E|-------6-6-6-6--3--3-3-3------8--|-------6-6-6--3--3-3-3--3-3-3------------|

e|---------------------------------|-----------------------------------------|
B|---------------------------------|-----------------------------------------|
G|--7-7---------------------10-----|--7-7------------------------------------|
D|--7-7--8-8-8-8--5--5-5-5--10-10--|--7-7--8-8-8--5--5-----------------------|
A|--5-5--8-8-8-8--5--5-5-5---8-10--|--5-5--8-8-8--5--5-----------------------|
E|-------6-6-6-6--3--3-3-3------8--|-------6-6-6--3--3-----------------------|


Verse

e|--------------------------------------|
B|--------------------------------------| x2
G|------7-------------------10----------|
D|----7-------8-----5----10---------10--|
A|--5-------8-----5----8---------10-----|
E|--------6-----3--------------8--------|

e|-------------------------------------------------------------|
B|-------------------------------------------------------------|
G|--7--7-7-7----------------------10--10-10-10-10-10-10-10-10--|
D|--7--7-7-7--8--8-8-8--5--5-5-5--10--10-10-10-10-10-10-10-10--|
A|--5--5-5-5--8--8-8-8--5--5-5-5---8---8--8--8--8--8--8--8--8--|
E|------------6--6-6-6--3--3-3-3-------------------------------|

e|-------|------------------------------------|----------------------------------|
B|-------|------(2)-------------(2)-----------|----------------------------------|
G|--5----|-------2---------------2------------|----------------------------------|
D|--5-5--|--0-0--0-0--3--5--0-0--0-0-0--3--5--|--8---8-8---10---10-10--10-10-10--|
A|--3-5--|--0-0--0-0--3--5--0-0--0-0-0--3--5--|--8---8-8---10---10-10--10-10-10--|
E|----3--|------------1--3--------------1--3--|--6---6-6----8----8--8---8--8--8--|


Chorus

e|---------------------------------|-----------------------------------------|
B|---------------------------------|-----------------------------------------| x2
G|--7-7---------------------10-----|--7-7-------------------5-5-5------------|
D|--7-7--8-8-8-8--5--5-5-5--10-10--|--7-7--8-8-8--5--5-5-5--5-5-5------------|
A|--5-5--8-8-8-8--5--5-5-5---8-10--|--5-5--8-8-8--5--5-5-5--3-3-3------------|
E|-------6-6-6-6--3--3-3-3------8--|-------6-6-6--3--3-3-3--3-3-3------------|

e|------------------------------------|
B|------(2)-------------(2)-----------| x2
G|-------2---------------2------------|
D|--0-0--0-0--3--5--0-0--0-0-0--3--5--|
A|--0-0--0-0--3--5--0-0--0-0-0--3--5--|
E|------------1--3--------------1--3--|


Verse 2

e|--------------------------------------|        e|-------|
B|--------------------------------------| x2     B|-------| x48 (6x8)
G|------7-------------------10----------|        G|---7---|
D|----7-------8-----5----10---------10--|        D|-------|
A|--5-------8-----5----8---------10-----|        A|---5---|
E|--------6-----3--------------8--------|        E|-------|

e|-------|------------------------------------|
B|-------|------(2)-------------(2)-----------| x2
G|--5----|-------2---------------2------------|
D|--5-5--|--0-0--0-0--3--5--0-0--0-0-0--3--5--|
A|--3-5--|--0-0--0-0--3--5--0-0--0-0-0--3--5--|
E|----3--|------------1--3--------------1--3--|

e|----------------------------------|
B|----------------------------------|
G|----------------------------------|
D|--8---8-8---10---10-10--10-10-10--|
A|--8---8-8---10---10-10--10-10-10--|
E|--6---6-6----8----8--8---8--8--8--|

Chorus

e|---------------------------------|-----------------------------------------|
B|---------------------------------|-----------------------------------------| x2
G|--7-7---------------------10-----|--7-7-------------------5-5-5------------|
D|--7-7--8-8-8-8--5--5-5-5--10-10--|--7-7--8-8-8--5--5-5-5--5-5-5------------|
A|--5-5--8-8-8-8--5--5-5-5---8-10--|--5-5--8-8-8--5--5-5-5--3-3-3------------|
E|-------6-6-6-6--3--3-3-3------8--|-------6-6-6--3--3-3-3--3-3-3------------|

e|------------------------------------|--------------------------------------|
B|------(2)-------------(2)-----------|------(2)-------------(2)-------------|
G|-------2---------------2------------|-------2---------------2--------------|
D|--0-0--0-0--3--5--0-0--0-0-0--3--5--|--0-0--0-0--3--5--0-0--0-0-0----------|
A|--0-0--0-0--3--5--0-0--0-0-0--3--5--|--0-0--0-0--3--5--0-0--0-0-0--3gb4----|
E|------------1--3--------------1--3--|------------1--3----------------------|

 
Solo

e|---------------------------------------------------------------------------|
B|--7------9-----10--------12-----15-----15----------------------------------|
G|--9b11--11b13--12gb14----14b16--17b19--17b19r17\9--------------------------|
D|---------------------------------------------------------------------------|
A|---------------------------------------------------------------------------|
E|---------------------------------------------------------------------------|

e|----------------------------------|----------------------------------------|
B|--10--10-10-10--10--10--7------7--|--10--10-10-10--13--12--10--7-----------|
G|--10--10-10-10--10--10--7------7--|--10--10-10-10--13--12--10--7-----------|
D|---------------------------10-----|----------------------------------------|
A|----------------------------------|----------------------------------------|
E|----------------------------------|----------------------------------------|

e|----------------------------------|
B|----------------------------------|
G|----------------------------------|
D|--5-3-------------------3---------|
A|-------5-3----------------5-------|
E|------------5-3--1-3-5------------|

e|---------------|---------------|---------------|--------10h13--------------|
B|---------------|---------------|--------10-----|--10h13--------------------|
G|---------------|--------10-----|--10h12----12--|---------------------------|
D|--------10-----|--10h12----12--|---------------|---------------------------|
A|--10h12----12--|---------------|---------------|---------------------------|
E|---------------|---------------|---------------|---------------------------|

e|--13p10----10-----|---------------------|----------------------------------|
B|--------13----13--|--10h13p10----10-----|----------------------------------|
G|------------------|-----------12----12--|--10h12p10----12-10---------------|
D|------------------|---------------------|-----------12---------------------|
A|------------------|---------------------|----------------------------------|
E|------------------|---------------------|----------------------------------|

e|------------------|
B|--10--------------|
G|--12b14gr12---9~--|
D|------------------|
A|------------------|
E|------------------|

played over

e|----------------------------------|
B|----------------------------------|
G|----------------------------------|
D|--8---8-8---10---10-10--10-10-10--|
A|--8---8-8---10---10-10--10-10-10--|
E|--6---6-6----8----8--8---8--8--8--|


Chorus

e|---------------------------------|-----------------------------------------|
B|---------------------------------|-----------------------------------------| x4
G|--7-7---------------------10-----|--7-7-------------------5-5-5------------|
D|--7-7--8-8-8-8--5--5-5-5--10-10--|--7-7--8-8-8--5--5-5-5--5-5-5------------|
A|--5-5--8-8-8-8--5--5-5-5---8-10--|--5-5--8-8-8--5--5-5-5--3-3-3------------|
E|-------6-6-6-6--3--3-3-3------8--|-------6-6-6--3--3-3-3--3-3-3------------|

e|---------------------------------|-----------------------------------------|
B|---------------------------------|-----------------------------------------| x4
G|--7-7---------------------10-----|--7-7-------------------5-5-5------------|
D|--7-7--8-8-8-8--5--5-5-5--10-10--|--7-7--8-8-8--5--5-5-5--5-5-5------------|
A|--5-5--8-8-8-8--5--5-5-5---8-10--|--5-5--8-8-8--5--5-5-5--3-3-3------------|
E|-------6-6-6-6--3--3-3-3------8--|-------6-6-6--3--3-3-3--3-3-3------------|

e|-------|
B|-------| x8
G|---7---|
D|-------|
A|---5---|
E|-------|


End

e|--------------------------------|--------------------------------|
B|----(2)-------------(2)---------|----(2)-----------(2)-----------|
G|-----2---------------2----------|-----2-------------2------------|
D|--0--0-0--3--5--0--0-0-0--3--5--|--0--0-0--3--5--0--0-0-0--------|
A|--0--0-0--3--5--0--0-0-0--3--5--|--0--0-0--3--5--0--0-0-0--3gb4--|
E|----------1--3------------1--3--|----------1--3------------------|

e|--------------------------------|--------------------------------|
B|----(2)-----------(2)-----------|----(2)-------------(2)-(2)-----|
G|-----2-------------2------------|-----2---------------2---2------|
D|--0--0-0--3--5--0--0-0-0--3--5--|--0--0-0--3--5--0-0--0-0-0------|
A|--0--0-0--3--5--0--0-0-0--3--5--|--0--0-0--3--5--0-0--0-0-0------|
E|----------1--3------------1--3--|----------1--3------------------|




************************************

| /   slide up
| \   slide down
| h   hammer-on
| p   pull-off
| ~   vibrato
| +   harmonic
| x   Mute note
| b   Bend
| pb  Pre-bend
| br  Bend release
| pbr Pre-bend release
| brb Bend release bend

************************************
Добавлено: 24.10.2014
Другие материалы по этой песне:
  • Аккорды и текст

Страница создана 24.10.2014
https://primanota.ru/the-answer/new-horizon-chords.htm

Привет, гитарист!

Тебе подарок от сайта PrimaNota.ru

Забрать подарок
ВАМ ПОДАРКИ ОТ ПРОЕКТА
"ГИТАРНАЯ РЕВОЛЮЦИЯ"