» 
 » 
People



The 1975 - People - аккорды

Чайковский в рок-аранжировке! Очень необычно, послушай!
Тональность: 
0
Масштаб: 
100%
Прокрутка: 
0
Проще!
Аппликатуры
Нотный режим
People
The 1975
[ Предположительная тональность: D ]

[Verse 1]
e|----------------------------|----------------------------|-------------------|
B|--8-8----------8-8----------|--8-8----------8-8----------|-------------------|
G|------7-7----------7-7------|------7-7----------7-7------|--7-7-----7--7-----|
D|----------6-6----------6-6--|----------6-6----------6-6--|-------6-----------|
A|----------------------------|----------------------------|-------------------|
E|----------------------------|----------------------------|-------------------|

e|-----------------------------|----------------------------|-------------------|
B|--8--8----------8-8----------|--8-8----------8-8----------|-------------------|
G|-------7-7----------7-7------|------7-7----------7-7------|--7-7-----7--7-----|
D|-----------6-6----------6-6--|----------6-6----------6-6--|-------6-----------| (x2)
A|-----------------------------|----------------------------|-------------------|
E|-----------------------------|----------------------------|-------------------|


[Pre-Chorus 1]
e|-----------------------------|---------------------|-------------------|
B|--8--8----------8-8----------|---------------------|-------------------|
G|-------7-7----------7-7------|--7-7----------------|-------------7--7--|
D|-----------6-6----------6-6--|-------6-6--5-----3--|-------------------|
A|-----------------------------|------------5-----3--|-------------------|
E|-----------------------------|------------3-----1--|-------------------|
                                                                                        *Note - for the chorus
                                                                                       Optionally, you can add
[Chorus 1]                                                                                    the 7th on the C
e|---------------------|---------------------|---------------------|---------------------|            e|-----|
B|---------------------|---------------------|---------------------|--------------7--7---|            B|-----|
G|---------------------|---------------------|---------------------|--------------7--7b--|            G|-----|
D|---------------------|---------------------|---------------------|---------------------|            D|-----|
A|---------------------|---------------------|---------------------|---------------------|            A|--7--|
E|--0-0-0-0-0-0--------|--0-0-0-0-0-0--------|--0-0-0-0-0-0--------|--0-0-0-0-0-0--------|            E|--0--|

e|---------------------|---------------------|---------------------|---------------------|
B|---------------------|---------------------|---------------------|---------------------|
G|---------------------|---------------------|---------------------|---------------------|
D|---------------------|---------------------|---------------------|---------------------|
A|---------------------|---------------------|---------------------|---------------------|
E|------0-0-0-0--------|--0-0-0-0-0-0--------|--0-0-0-0-0-0--------|--0-0-0-0-0-0--------|

e|---------------------|---------------------|---------------------|---------------------|
B|---------------------|---------------------|---------------------|--------------7--7---|
G|---------------------|---------------------|---------------------|--------------7--7b--|
D|---------------------|---------------------|---------------------|---------------------|
A|---------------------|---------------------|---------------------|---------------------|
E|--0-0-0-0-0-0--------|--0-0-0-0-0-0--------|--0-0-0-0-0-0--------|--0-0-0-0-0-0--------|

e|---------------------|---------------------|---------------------|---------------------|
B|---------------------|---------------------|---------------------|--------------7--7---|
G|---------------------|---------------------|---------------------|--------------7--7b--|
D|---------------------|---------------------|---------------------|---------------------| (x2)
A|---------------------|---------------------|---------------------|---------------------|
E|------0-0-0-0--------|--0-0-0-0-0-0--------|--0-0-0-0-0-0--------|--0-0-0-0-0-0--------|

e|---------------------|---------------------|---------------------|---------------------|
B|---------------------|---------------------|---------------------|---------------------|
G|---------------------|---------------------|---------------------|---------------------|
D|---------------------|---------------------|---------------------|---------------------|
A|---------------------|---------------------|---------------------|---------------------|
E|------0-0-0-0--------|--0-0-0-0-0-0--------|--0-0-0-0-0-0--------|--0-0-0-0-0-0--------|


[Verse 2]
e|----------------------------|----------------------------|-------------------|
B|--8-8----------8-8----------|--8-8----------8-8----------|-------------------|
G|------7-7----------7-7------|------7-7----------7-7------|--7-7-----7--7-----|
D|----------6-6----------6-6--|----------6-6----------6-6--|-------6-----------|
A|----------------------------|----------------------------|-------------------|
E|----------------------------|----------------------------|-------------------|

e|-----------------------------|----------------------------|-------------------|
B|--8--8----------8-8----------|--8-8----------8-8----------|-------------------|
G|-------7-7----------7-7------|------7-7----------7-7------|--7-7-----7--7-----|
D|-----------6-6----------6-6--|----------6-6----------6-6--|-------6-----------| (x2)
A|-----------------------------|----------------------------|-------------------|
E|-----------------------------|----------------------------|-------------------|


[Pre-Chorus 2]
e|-----------------------------|---------------------|
B|--8--8----------8-8----------|---------------------|
G|-------7-7----------7-7------|--7-7----------------|
D|-----------6-6----------6-6--|-------6-6--5-----3--|
A|-----------------------------|------------5-----3--|
E|-----------------------------|------------3-----1--|


[Chorus 2]
e|---------------------|---------------------|---------------------|---------------------|
B|---------------------|---------------------|---------------------|--------------7--7---|
G|---------------------|---------------------|---------------------|--------------7--7b--|
D|---------------------|---------------------|---------------------|---------------------|
A|---------------------|---------------------|---------------------|---------------------|
E|--0-0-0-0-0-0--------|--0-0-0-0-0-0--------|--0-0-0-0-0-0--------|--0-0-0-0-0-0--------|

e|---------------------|---------------------|---------------------|---------------------|
B|---------------------|---------------------|---------------------|---------------------|
G|---------------------|---------------------|---------------------|---------------------|
D|---------------------|---------------------|---------------------|---------------------|
A|---------------------|---------------------|---------------------|---------------------|
E|---------------------|---------------------|---------------------|---------------------|

e|---------------------|---------------------|---------------------|---------------------|
B|---------------------|---------------------|---------------------|--------------7--7---|
G|---------------------|---------------------|---------------------|--------------7--7b--|
D|---------------------|---------------------|---------------------|---------------------|
A|---------------------|---------------------|---------------------|---------------------|
E|---------------------|---------------------|---------------------|---------------------|

e|---------------------|---------------------|---------------------|---------------------|
B|---------------------|---------------------|---------------------|---------------------|
G|---------------------|---------------------|---------------------|---------------------|
D|---------------------|---------------------|---------------------|---------------------|
A|---------------------|---------------------|---------------------|---------------------|
E|---------------------|---------------------|---------------------|---------------------|

e|---------------------|---------------------|---------------------|---------------------|
B|---------------------|---------------------|---------------------|---------------------|
G|---------------------|---------------------|---------------------|---------------------|
D|---------------------|---------------------|---------------------|---------------------|
A|---------------------|---------------------|---------------------|---------------------|
E|---------------------|---------------------|---------------------|---------------------|



e|---------------------|---------------------|---------------------|---------------------|
B|---------------------|---------------------|---------------------|--------------7--7---|
G|---------------------|---------------------|---------------------|--------------7--7b--|
D|---------------------|---------------------|---------------------|---------------------|
A|---------------------|---------------------|---------------------|---------------------|
E|--0-0-0-0-0-0--------|--0-0-0-0-0-0--------|--0-0-0-0-0-0--------|--0-0-0-0-0-0--------|

e|---------------------|---------------------|---------------------|---------------------|
B|---------------------|---------------------|---------------------|--------------7--7---|
G|---------------------|---------------------|---------------------|--------------7--7b--|
D|---------------------|---------------------|---------------------|---------------------| (x3)
A|---------------------|---------------------|---------------------|---------------------|
E|------0-0-0-0--------|--0-0-0-0-0-0--------|--0-0-0-0-0-0--------|--0-0-0-0-0-0--------|


e|------------|
B|------------|
G|------------|
D|--5------3--|
A|--5------3--|
E|--3------1--|


************************************

| b   Bend

************************************

Wake up, wake up, wake up
It's Monday morning and we've only got a thousand of them left
Well, I know it feels pointless and you don't have any money
But we're all just gonna try our fucking best
Well, my generation wanna fuck Barack Obama
Living in a sauna with legal marijuana
Well, girls, food, gear
I don't like going outside, so bring me everything here
(Yeah, woo, yeah, that's right)
People like people
They want alive people
The young surprise people
Stop fucking with the, fucking with the
People like people
They want alive people
The young surprise people
Stop fucking with the, fucking with the
People like people
They want alive people
The young surprise people
Stop fucking with the, fucking with the
People like people
They want alive people
The young surprise people
Stop fucking with the kids
Wake up, wake up, wake up
We are appalling and we need to stop just watching shit in bed
And I know it sounds boring and we like things that are funny
But we need to get this in our fucking heads
The economy's a goner, republic's a banana, ignore it if you wanna
Fuck it, I'm just gonna get girls, food, gear
I don't like going outside, so bring me everything here
(Yeah, woo, yeah)
People like people
They want alive people
The young surprise people
Stop fucking with the, fucking with the
People like people
They want alive people
The young surprise people
Stop fucking with the, fucking with the
People like people
They want alive people
The young surprise people
Stop fucking with the kids
People like people
They want alive people
The young surprise people
Stop fucking with the kids
People like people
They want alive people
The young surprise people
Stop fucking with the, fucking with the
People like people
They want alive people
The young surprise people
Stop fucking with the, fucking with the
People like people
They want alive people
The young surprise people
Stop fucking with the kids

The 1975 - People - ноты

(включить)
Другие композиции этого автора:
Другие материалы по этой песне:
  • Аккорды, текст

https://primanota.ru/the-1975/people-chords.htm

Привет, гитарист!

Тебе подарок от сайта PrimaNota.ru

Забрать подарок
ВАМ ПОДАРКИ ОТ ПРОЕКТА
"ГИТАРНАЯ РЕВОЛЮЦИЯ"