Войти:  Facebook Google Twitter Vk Yandex Mail.ru
PrimaNota.ru - самый крупный в мире бесплатный архив песенных текстов, аккордов, табулатур и нот


Swmrs - Trashbag Baby - аккорды

Нотный режим - новая уникальная возможность на нашем сайте!

Trashbag Baby
Swmrs
[ Предположительная тональность: D ]

main riff in trashbag baby
based on the cover @justburninout did on twitter.
listen the song for the timing


e|-------10-10-10-10-------|-------10-10-10-10-------|
B|-------------------------|-------------------------|
G|-9-12--------------------|-9-12--------------------|
D|-------------------------|-------------------------|
A|-------------------------|-------------------------|
E|-------------------------|-------------------------|

e|-------------------------|-------------------------|
B|-12-10-------------------|-12-10-------------------|
G|-------12-12-12-12-------|-------12-12-12-12-------|
D|-------------------------|-------------------------|
A|-------------------------|-------------------------|
E|-------------------------|-------------------------|

e|-------------------------|-------------------------|
B|-10----------------------|-------------------------|
G|---12--9-9-9-9-----------|-12----------------------|
D|-------------------------|----9-9-9-9--------------|
A|-------------------------|-------------------------|
E|-------------------------|-------------------------|

e|-------------------------|-------------------------|
B|-------------------------|-------------------------|
G|-------------------------|-------------------------|
D|-12-------9-12-----------|-10-10-10-10-------------|
A|----10-10----------------|-------------------------|
E|-------------------------|-------------------------|

e|-------10-10-10-10-------|-------10-10-10-10-------|
B|-------------------------|-------------------------|
G|-9-12--------------------|-9-12--------------------|
D|-------------------------|-------------------------|
A|-------------------------|-------------------------|
E|-------------------------|-------------------------|

e|-------------------------|-------------------------|
B|-12-10-------------------|-12-10-------------12-10-|
G|-------12-12-12-12-------|-------12-12-12-12-------|
D|-------------------------|-------------------------|
A|-------------------------|-------------------------|
E|-------------------------|-------------------------|

[Verse 1]
So, first off, "I hate you."
The words cut through her lips like a Japanese knife
She didn't expect to be hearing this tonight
Meanwhile, I hear it all happening
Through the door on the phone in the next room
Yeah, I'm listening to you

[Chorus]
She said "I can't wait, I can't wait 'til there's no soreness in my arms
And I can't wait, I can't wait, 'til there's no scar across my heart
I'm sick of being your trashbag, baby, wanna see you fall down
I can't wait, I can't wait until you're not around"

[Verse 2]
My heart breaks, it shatters
I spend all of June trying to pick up the shards
Oh yeah, oh no, I should have known better
But I'm not bitter
My hand hurts, it's blistered
So don't grab it 'cause she'll fuckin' stab you
It's true!
When will you stop playing with fire?
Well, I don't know

[Chorus]
She said "I can't wait, I can't wait 'til there's no soreness in my arms
And I can't wait, I can't wait, 'til there's no scar across my heart
I'm sick of being your trashbag, baby, wanna see you fall down
I can't wait, I can't wait until you're not around"

[Bridge]
I can't wait, I can't wait for you anymore (I can't wait for you)
I can't wait, I can't wait for you anymore (I can't wait for you)
I'm sick of being your trashbag, baby, wanna see you fall down
(Sick of being your trashbag, baby)
I can't wait, I can't wait until you're not around
(Sick of being your trashbag)

[Chorus]
She said "I can't wait, I can't wait 'til there's no soreness in my arms
And I can't wait, I can't wait, 'til there's no scar across my heart
I'm sick of being your trashbag, baby, wanna see you fall down
I can't wait, I can't wait until you're not around"

Swmrs - Trashbag Baby - ноты

(включить)
Другие материалы по этой песне:
  • Аккорды, текст

https://primanota.ru/swmrs/trashbag-baby-chords.htm

Привет, гитарист!

Тебе подарок от сайта PrimaNota.ru

Забрать подарок
ВАМ ПОДАРКИ ОТ ПРОЕКТА
"ГИТАРНАЯ РЕВОЛЮЦИЯ"