Войти:  Facebook Google Twitter Vk Yandex Mail.ru
PrimaNota.ru - самый крупный в мире бесплатный архив песенных текстов, аккордов, табулатур и нот


Susto - Mystery Man - аккорды и текст, видео

Печатать
Просмотров: 61
Лучшая metal-группа Петербурга

Mystery Man

  • аккорды и текст
Тональность: 
0
Проще! Аппликатуры

Mystery Man
Susto
Capo 3
With this song, you can play around a lot with the hammer ons on the D and G strings (both 0h2).
These guys use C/G in place of C, and F7M   in place of F, in I believe every song in the key of C, which I'm
a big fan of. But for all intensive purposes you can do either one.
Anywhere you see a G chord at the end of a line, it'll always be just one beat of G, then start the next
measure.
Hope y'all enjoy 
    C  or  C/G         F  or  F7M         G    Em   Am   C/B  Dm
e|--0-------0----------1------0-----------3----0----0----0----1----------------|
B|--1-------1----------1------1-----------0----0----1----1----3----------------|
G|--0-------0----------2------2-----------0----0----2----0----2----------------|
D|--2-------2----------3------3-----------0----2----2----0----0----------------|
A|--3-------3----------3------3-----------2----2----0----2---------------------|
E|----------3----------1------------------3----0-------------------------------|

[Intro]
 C               F               C               F
(x2) measures   (x2) measures   (x2) measures   (x2) measures

[Verse 1]
C                             F
  First thing I saw, you were fallin' apart on stage
C                             F          
  Electric guitar and leopard pants
C                                            F
  Everyone was talkin' about you, you're the next big thing
C                   F
  Already huge in Japan

[Pre-chorus]
G                       Em               F
 One thing I know, it's nice havin' you around
C                      F     G
  I'm so happy you're alive

[Chorus]
C                           F                             C
  Ridin' in your mystery va-an, I can be your mystery ma--an
              F     
Holdin' on to you
C                          F                                      C
  I can be your delicate o-one, but I'd like to have a little fuun
                   G       F
Ridin' around with you

[Verse 2]
C                                        F
  I wanna climb a hundred floors of your Empire State
C                          F
  Get a better view of the world
C                                 F
  I wanna hear about everyone who broke your heart
C                                F
  Tell me how you write all your songs

[Pre-chorus]
G                   Em      F
  Tears of joy, are fallin' down
C                      F
  I'm so happy you're alive
G                  Em      F
  I wanna go, to a far off town
     F       G
With you

[Chorus]
C                           F                             C
  Ridin' in your mystery va-an, I can be your mystery ma--an
              F
Holdin' on to you
C                          F                                      C
  I can be your delicate o-one, but I'd like to have a little fu--un
                   F
Ridin' around with you

[Bridge]
Am                              C
  I see your photo every where,  but never talk to you
G                                   F
  You're just a whisper, through my backyard trees
Am                                   C
  Just a fraction of the line of the skinny boys
G         
  Who have fallen in love with you, like I'm doin' now too

[Solo]
   C                       F                          C                 F
e|-----------------------------------------------------------------------------------------|
B|-----------------------------------------------------------------------------------------|
G|----0-0-0-0-0-0-0-0h2--0-----------------------------------------------------------------|
D|-------------------------3---3-3-3-3-3-3-3-3/5--3p2-----3/5-5-5/3-3p2--------------------|
A|----------------------------------------------------3-----------------3------------------|
E|-----------------------------------------------------------------------------------------|

   C                       F                          C   C/B   Am   G   F    Em  Dm  G  C
e|-----------------------------------------------------------------------------------------|
B|-----------------------------------------------------------------------------------------|
G|----0-0-0-0-0-0-0-0h2--0-----------------------------------------------------------------|
D|-------------------------3---3-3-3-3-3-3-3-3/5--3p2-----3/5-5-5/3-3p2--2h3--2---0--------|
A|----------------------------------------------------3-------------------------------2--3-|
E|-----------------------------------------------------------------------------------------|

[Chorus]
C                           F                             C
  Ridin' in your mystery va-an, I can be your mystery ma--an
              F
Holdin' on to you
C                          F                                      C
  I can be your delicate o-one, but I'd like to have a little fu--un
               F
Makin' love to you
Добавлено: 18.06.2018
Другие материалы по этой песне:
  • Аккорды и текст

Страница создана 18.06.2018
https://primanota.ru/susto/mystery-man-chords.htm

Привет, гитарист!

Тебе подарок от сайта PrimaNota.ru

Забрать подарок
ВАМ ПОДАРКИ ОТ ПРОЕКТА
"ГИТАРНАЯ РЕВОЛЮЦИЯ"