Войти:  Facebook Google Twitter Vk Yandex Mail.ru
PrimaNota.ru - самый крупный в мире бесплатный архив песенных текстов, аккордов, табулатур и нот


Susto - La Mia - аккорды, текст

Печатать
Лучшая metal-группа Петербурга

La Mia

  • аккорды, текст
Тональность: 
0
Проще! Аппликатуры

La Mia
Susto
[Intro]
     G               F               C/G
e|---------5---3/1---------1----------0----0------0----0--------|
B|-------3---3-----------1---1---1----1----1---1--1----1--------|
G|-----4---------------2-------2------0--0-----2--0--0---0------|
D|---5---------------3----------------2--2-----3--2--2-----2----|
A|------------------------------------3------3-3--3----------3--|
E|------------------------------------3-----------3-------------|
     G               F               C/G
e|---------5---3/1---------1----------0----0------0----0--------|
B|-------3---3-----------1---1---1----1----1---1--1----1--------|
G|-----4---------------2-------2------0--0-----2--0--0---0------|
D|---5---------------3----------------2--2-----3--2--2-----2----|
A|------------------------------------3------3-3--3----------3--|
E|------------------------------------3-----------3-------------|

[Verse]
           C/G          F      C/G    
I can feel another one,  comin' on
                 E              F             C/G
I saw it in your eyes and now I feel it in my bones
              G     F     C/G
Have you ever felt, this, way
                    G         F                 C/G
Cause I can feel it now but I don't know how to say

[Verse]
                       C/G   F             C/G  
We were talkin' in the cab,  talkin' in the street
               E              F              C/G
But do you not mind it when I tell you how I feel
              G     F     C/G
Can I see you some, time, soon
                      G                         F                      C/G
Cause I can't keep my mind off of feelin' and I can't keep my eyes off you


G    F    C/G
G    F    C/G

[Verse]
                   C/G                F          C/G         
I been drinkin' my fill tonight, just countin' my time
                 E         F                     C/G
But suddenly I'm lost now, here in these Maquina lights
             G                F                 C/G
So you don't mind, that I'm a little older than you
           G            F             C/G
Can I have one last smile  and a cigarette too
G     F     C/G
  Ooo Ooooh Ooooh
G     F     C/G
  Ooo Ooooh Ooooh


[Verse]
F                           C/G                
Say, that you don't have to go
            Dm                             C/G    C7
Away to Varadero, I would love to have you here
F                         C/G
There's, not much time ya know
                   Dm        Em        Dm                C/G
Before I've got to go,                 back to where I'm from

              e|---5--5------7--7-------| 
              B|---6----6/8--8----8/6---| 
              G|---7---------9--------7-| 
              D|------------------------| 
              A|------------------------| 
              E|------------------------|        
Другие материалы по этой песне:
  • Аккорды, текст

https://primanota.ru/susto/la-mia-chords.htm

Привет, гитарист!

Тебе подарок от сайта PrimaNota.ru

Забрать подарок
ВАМ ПОДАРКИ ОТ ПРОЕКТА
"ГИТАРНАЯ РЕВОЛЮЦИЯ"