# 0 1 2 3 4 5 6 7 8 9 A B C D E F G H I J K L M N O P Q R S T U V W X Y Z
А Б В Г Д Е Ж З И І Й К Л М Н О П Р С Т У Ф Х Ц Ч Ш Щ Ы Э Ю Я
Войти:  Facebook Google Twitter Vk Yandex Mail.ru



Sunrise Avenue - Flag - аккорды

 » 
 » 
Flag
Нотный режим - новая уникальная возможность на нашем сайте!
Тональность: 
0
Масштаб: 
100%
Прокрутка: 
0
Проще!
Аппликатуры
Нотный режим
Flag
Sunrise Avenue
[ Предположительная тональность: G ]

C                     G
e|--------------------|--------------------|
B|-------3---------3--|--------3-------3---|
G|---2-4-------2-4----|----2-4-----2-4-----|
D|-5---------5--------|--------------------|
A|--------------------|--3-------3---------|
E|--------------------|--------------------|


[Verse 1]
C
Tell me 'bout the road you've chosen
G
Tell me 'bout the signs of life
Gm
Tell me how much you're hoping
G
That it's gonna be all right
C
Tell me 'bout the smile you're faking
G
Show me all the scars you have
Gm
But even if your heart is aching
G
Let me say it's not that bad

   C                     G
e|--------------------|--------------------|
B|-------3---------3--|--------3-------3---|
G|---2-4-------2-4----|----2-4-----2-4-----|
D|-5---------5--------|--------------------|
A|--------------------|--3-------3---------|
E|--------------------|--------------------|

                       Let me say it's not that bad


[Chorus]
C
You can be the one, you can be the light
                         G
You can be the star that shines at night
C                            G
Never let your flag Go down (never let your flag Go down)
C
You can win the fight, you will be amazed
                            G
You can make it change in a million ways
C                            G
Never let your flag Go down (never let your flag Go down)

   C                     G
e|--------------------|--------------------|
B|-------3---------3--|--------3-------3---|
G|---2-4-------2-4----|----2-4-----2-4-----|
D|-5---------5--------|--------------------|
A|--------------------|--3-------3---------|
E|--------------------|--------------------|

C                            G
Never let your flag Go down (never let your flag Go down)


[Verse 2]
C
Tell me what made you hungry
G
Tell me how it makes you mad
Gm
It's better going the right way slowly
G
Than getting just somewhere fast
C
Forget about the fears you're facing
G
And hold on to the dream you have
Gm
It's time for you to leave this place
    C                    G
And never look back, you never look back


[Chorus]
C
You can be the one, you can be the light
                         G
You can be the star that shines at night
C                            G
Never let your flag Go down (never let your flag Go down)
C
You can win the fight, you will be amazed
                            G
You can make it change in a million ways
C                            G
Never let your flag Go down (never let your flag Go down)

   C                     G
e|--------------------|--------------------|
B|-------3---------3--|--------3-------3---|
G|---2-4-------2-4----|----2-4-----2-4-----|
D|-5---------5--------|--------------------|
A|--------------------|--3-------3---------|
E|--------------------|--------------------|

C                            G
Never let your flag Go down (never let your flag Go down)


[Bridge]
C
Never let your, never let your, never let your yay
C
Never let your, never let your, never let your flag Go down
C
Never let your, never let your, never let your Go down
C
Never let your, never let your, never let your flag Go down


[Chorus]
C
You can be the one, you can be the light
                         G
You can be the star that shines at night
C                            G
Never let your flag Go down (never let your flag Go down)
C
You can win the fight, you will be amazed
                            G
You can make it change in a million ways
C                            G                   C  C
Never let your flag Go down (never let your flag Go down

   C                     G
e|--------------------|--------------------|
B|-------3---------3--|--------3-------3---|
G|---2-4-------2-4----|----2-4-----2-4-----|
D|-5---------5--------|--------------------|
A|--------------------|--3-------3---------|
E|--------------------|--------------------|

C                            G
Never let your flag Go down (never let your flag Go down)

   C                     G
e|--------------------|--------------------|
B|-------3---------3--|--------3-------3---|
G|---2-4-------2-4----|----2-4-----2-4-----|
D|-5---------5--------|--------------------|
A|--------------------|--3-------3---------|
E|--------------------|--------------------|

C                            G
Never let your flag Go down (never let your flag Go down)


   C                     G
e|--------------------|--------------------|
B|-------3---------3--|--------3-------3---|
G|---2-4-------2-4----|----2-4-----2-4-----|
D|-5---------5--------|--------------------| x2
A|--------------------|--3-------3---------|
E|--------------------|--------------------|

Sunrise Avenue - Flag - ноты

(включить)
Другие материалы по этой песне:
  • Аккорды, текст

https://primanota.ru/sunrise-avenue/flag-chords.htm

Привет, гитарист!

Тебе подарок от сайта PrimaNota.ru

Забрать подарок
ВАМ ПОДАРКИ ОТ ПРОЕКТА
"ГИТАРНАЯ РЕВОЛЮЦИЯ"