Войти:  Facebook Google Twitter Vk Yandex Mail.ru
PrimaNota.ru - самый крупный в мире бесплатный архив песенных текстов, аккордов, табулатур и нот


Stu Hamm - Who Do You Want Me To Be Today - бас-таба, видео

Печатать
Просмотров: 159
Лучшая metal-группа Петербурга

Who Do You Want Me To Be Today

  • аккорды и текст

Who Do You Want Me To Be Today?

Tabbed by: Brad Chamberlain (chamberlain.brad@yahoo.com)

The intro to this song is really awesome. Involves a lot of slapping with the thumb and
slightly popping of the G. I know I this isn't 100% but I'm trying to learn some new and
different music. In my opinion Stu is one of the best bass players in the world! Please 
e-mail me and questions or corrections. Thanks!

Intro

G|----0---0---0---0---0---0---0---0---0---|
D|-/5---5---5---5---3---3---3---2---2---0-|
A|----------------------------------------|
E|----------------------------------------|

G|----0---0---0---0---0---0---0---0---0---|
D|-/5---5---5---5---3---3---3---2---2---0-|
A|----------------------------------------|
E|----------------------------------------|

G|----0---0---0---0---0---0---0---0---0---|
D|-/5---5---5---5---3---3---3---2---2---0-|
A|----------------------------------------|
E|----------------------------------------|

G|----0---0---0---0---0---0---0---0---0---|
D|-/5---5---5---5---3---3---3---2---2---0-|
A|----------------------------------------|
E|----------------------------------------|

G|----0---0---0---0---0---0---0---0---0---|
D|-/8---8---8---8---7---7---7---5---5---3-|
A|----------------------------------------|
E|----------------------------------------|

G|----0---0---0---0---0---0---0---0---0---|
D|-/8---8---8---8---7---7---7---5---5---3-|
A|----------------------------------------|
E|----------------------------------------|

G|----0---0---0----0----0----0----0----0----|
D|-/8---8---8---10---10---10---12---12---12-|
A|------------------------------------------|
E|------------------------------------------|

G|----0---0---0----0----0----0----0----0----|
D|-/8---8---8---10---10---10---12---12---12-|
A|------------------------------------------|
E|------------------------------------------|

G|----0---0---0---0---0---0---0---0---0---0---0---0---0---0---0---0---0---|
D|-/8---8---8---7---7---7---5---5---5---3---3---3---2---2---2---0---0---0-|
A|------------------------------------------------------------------------|
E|------------------------------------------------------------------------|

G|---0---0---0---0---0---0---0---0---0---0---0---0---0-------|
D|-----------------------------------------------------------|
A|-0---0---0---2---3---5---------------------------------0---|
E|-------------------------3---3---3---3---3---3---3---3-----|

G|---0---0---0---0---0---0---0---0---0---0---0---0---0-------|
D|-----------------------------------------------------------|
A|-0---0---0---2---3---5---------------------------------0---|
E|-------------------------3---3---3---3---3---3---3---3-----|

G|---0---0---0---0---0---0---0---0---0---0---0---0---0-------|
D|-----------------------------------------------------------|
A|-0---0---0---2---3---5---------------------------------0---|
E|-------------------------3---3---3---3---3---3---3---3-----|

G|---0---0---0---0---0---0---0---0---0---0---0---0---0-------|
D|-----------------------------------------------------------|
A|-0---0---0---2---3---5---------------------------------0---|
E|-------------------------3---3---3---3---3---3---3---3-----|

That's it! It's pretty tough so you will have to work on it!
Добавлено: 27.05.2012
Другие материалы по этой песне:
  • Аккорды и текст

Страница создана 27.05.2012
https://primanota.ru/stu-hamm/who-do-you-want-me-to-be-today-chords.htm

Привет, гитарист!

Тебе подарок от сайта PrimaNota.ru

Забрать подарок
ВАМ ПОДАРКИ ОТ ПРОЕКТА
"ГИТАРНАЯ РЕВОЛЮЦИЯ"