Войти:  Facebook Google Twitter Vk Yandex Mail.ru
PrimaNota.ru - самый крупный в мире бесплатный архив песенных текстов, аккордов, табулатур и нот


Stu Hamm - Surely The Best - бас-таба, видео

Печатать
Просмотров: 153
Лучшая metal-группа Петербурга

Surely The Best


Surely The Best

Tabbed by: Brad Chamberlain (chamberlain.brad@yahoo.com)

I'm sorry for not posting the intro and rest of the song. I'm new to this tapping 
technique on bass and I'm still learning so much. Hopefully this part is right!

G|---------------------------21------19\17--17------------|
D|--------12--17---------19---------------------17/19\17--|
A|----10----------17/19----------19-------------17/19\17--|
E|-8------------------------------------------------------|

G|--------------------------19------17\15--15------------|
D|-------10--15---------17---------------------15/17\15--|
A|----8----------15/17----------17-------------15/17\15--|
E|-6-----------------------------------------------------|

G|---------------------------21------19\17--17------------|
D|--------12--17---------19---------------------17/19\17--|
A|----10----------17/19----------19-------------17/19\17--|
E|-8------------------------------------------------------|

G|--------------------------19------17\15--15------------|
D|-------10--15---------17---------------------15/17\15--|
A|----8----------15/17----------17-------------15/17\15--|
E|-6-----------------------------------------------------|
Добавлено: 30.06.2012
Другие материалы по этой песне:

Страница создана 30.06.2012
https://primanota.ru/stu-hamm/surely-the-best-chords.htm

Привет, гитарист!

Тебе подарок от сайта PrimaNota.ru

Забрать подарок
ВАМ ПОДАРКИ ОТ ПРОЕКТА
"ГИТАРНАЯ РЕВОЛЮЦИЯ"