Войти:  Facebook Google Twitter Vk Yandex Mail.ru
PrimaNota.ru - самый крупный в мире бесплатный архив песенных текстов, аккордов, табулатур и нот


Stu Hamm - Moonlight Sonata - аккорды и текст, бас-таба, видео

Печатать
Лучшая metal-группа Петербурга

Moonlight Sonata

  • аккорды и текст
  • gtp-табы
Тональность: 
0
Проще! Аппликатуры

Moonlight Sonata
Stu Hamm
Moonlight Sonata (Sonata Quasi Una Fantasia) in C# minor
Beethoven

Aranged for bass by Michael Lyon based on the live perfomance by Stu Hamm

G|---6-9---6-9---6-9---6-9--|---6-9---6-9---6-9---6 9--|
D|-6-----6-----6-----6------|-6-----6-----6-----6------|
A|-4------------------------|-2------------------------|
E|--------------------------|--------------------------|

G|---6-9---6-9-2-6-9---7-11-|---5-11---6-9---6-8---5-8-|
D|-7-----7-----------7------|-5------5-----5-----4-----|
A|--------------------------|--------------------------|
E|-5-----------2------------|-4------------4-----------|

G|--------------------------13-------13-|-13-----------------------13-------13-|
D|---6-11----11-14----11-14----11-14----|----11-14----11-14--11-14----11-14----|
A|-7------11-------11-------11----------|-11-------11------11------11----------|
E|-9------------------------------------|--------------------------------------|

G|-13----------------15----------------|-13----------------11-------14-------|
D|----11-14----11-14----11-14----11-14-|----11-14----11-14----11-14----11-14-|
A|-11-------11-------11-------11-------|-11-------11-------11-------11-------|
E|-------------------------------------|-------------------------------------|   
Добавлено: 30.01.2014
Другие материалы по этой песне:

Страница создана 22.03.2012
https://primanota.ru/stu-hamm/moonlight-sonata-chords.htm

Привет, гитарист!

Тебе подарок от сайта PrimaNota.ru

Забрать подарок
ВАМ ПОДАРКИ ОТ ПРОЕКТА
"ГИТАРНАЯ РЕВОЛЮЦИЯ"