Войти:  Facebook Google Twitter Vk Yandex Mail.ru
PrimaNota.ru - самый крупный в мире бесплатный архив песенных текстов, аккордов, табулатур и нот


Stu Hamm - Black Ice - бас-таба, видео

Печатать
Просмотров: 208
Лучшая metal-группа Петербурга

Black Ice


Black Ice

Tabbed by: Brad Chamberlain (chamberlain.brad@yahoo.com)

Played on a 5 string bass. Involves a lot of slapping and popping.

Intro/Verse

G|--------------------------------------------------------------|
D|-----------------------------3--------------------------------|
A|------5---3h5--------5---3h5---------5---3h5----------------3-|
E|-----------------------------------------------1--1-3-3-4-5---|
B|-3--3---3-----3-3--3---3--------3--3---3-----3----------------|

G|--------------------------------------------------------------|
D|-------------------------/7--3--------------------------------|
A|------5---3h5--------5---------------5---3h5----------------3-|
E|-----------------------------------------------1--1-3-3-4-5---|
B|-3--3---3-----3-3--3---3--------3--3---3-----3----------------|
Добавлено: 09.07.2012
Другие материалы по этой песне:

Страница создана 28.06.2012
https://primanota.ru/stu-hamm/black-ice-chords.htm

Привет, гитарист!

Тебе подарок от сайта PrimaNota.ru

Забрать подарок
ВАМ ПОДАРКИ ОТ ПРОЕКТА
"ГИТАРНАЯ РЕВОЛЮЦИЯ"